Oops, an error
Loading. Please wait.

Carry The Zero chords

version 1
version 1

Whole song

Interactive

51,251 views 141 this week
3 commentsread comments
1 2 3 4 5
x 38
add to favorites
×
Save as Personal and add changes to this tab that will be seen only by you. Learn more ›
×
You can save this tab as Personal to edit and correct it or add notes. All changes will be seen only by you. Learn more »
launch autoscroll
font size
0
reset
transpose
0
reset
simplify chords
display chords
guitar tuner
edit
Autoscroll
slow
fast
+/-
esc
set tempo
stop
Author
Difficulty
Strumming
There is no strumming pattern for this song yet. and get +5 IQ
[Verse 1] 
  
  Amaj7     E           B7            F#m
  I'm not knocking your want to carry that home

  Amaj7     E           B7                F#m
  Took it with you when you moved and got it broke

  Amaj7       E          B7           F#m
  Found the pieces, we counted them all alone

  Amaj7       E     B7               F#m
  Didn't add up, forgot to carry a zero


[Solo]

e|------------------------------------|
B|-2/9~----9\7--7-7h9-7-5--7p5-7--\2--|
G|------------------------------------|
D|------------------------------------|
A|------------------------------------|
E|------------------------------------|

e|---------------------------------------------|
B|-2/9^^--9/10^^--9-10-9-7/9--9/10\9---7~\5--2-|
G|---------------------------------------------|
D|---------------------------------------------|
A|---------------------------------------------|
E|---------------------------------------------|

e|------------------------------------|
B|-2/5--5/7--9/10--9-9-7-9-9/10-9-9/12| 
G|------------------------------------|
D|------------------------------------|
A|------------------------------------|
E|------------------------------------|

e|------------------------------------|
B|-12p10--9-10-9-10\5--9^^--5---------|    
G|------------------------------------|
D|------------------------------------|
A|------------------------------------|
E|------------------------------------|

e|------------------------------------|
B|-5h7p5-4--7-5-7--5/7--7/9--10^^-----| 
G|------------------------------------|
D|------------------------------------|
A|------------------------------------|
E|------------------------------------|

e|------------------------------------|
B|-9\5--7^-4--7-5-7--5/7--7/9--10^^---|
G|------------------------------------|
D|------------------------------------|
A|------------------------------------|
E|------------------------------------|


[Verse 2]

  Amaj7     E       B7         F#m
  I can't be your apologist very long

  Amaj7       E              B7            F#m
  I'm surprised that you'd want to carry that on

  Amaj7         E            B7                F#m
  Count your blemishes you can't they're all gone

  Amaj7     E           B7                      F#m
  I can't see your response putting them back on

                Amaj7           E
  Like they're waiting for your guard to fall

      B7             F#m
  So they can see it all

                Amaj7
  And you're so occupied with what

  E                 B7
  other persons are occupied with

  F#m
  And vice versa
  
  
[Verse 3]

      Amaj7     E                       B7
  So you've become what you thought was dumb

                    F#m
  A fraction of the sum

               Amaj7                    E
  Yeah you've become, yeah you have become,

                    B7
  A fraction of the sum

                     F#m
  the middle and the front

                Amaj7
  And now it's coming back

                  E
  hasn't come too far

        Amaj7
  I was trying to help but

                       E
  I guess I pushed too hard

             Amaj7
  And now we can't even touch it

                      E
  'fraid it'll fall apart



************************************

| h  Hammer-on
| p  Pull-off
| /  Slide up
| \  Slide down
| ~  Vibrato
| ^  Bend

************************************

            
            
Suggest correction
Creating personal tab
Creating personal tab
You can edit any tab online and save it as your Personal.

You can edit, replace or remove any tab part or add personal notes – all changes will be seen only by you.

Personal tabs can be accessed anytime from any device, even offline.
Learn more »
comments
print report bad tab
3 comments total.
+1 reply
evanmcshane 10 Dec 23, 2014 01:02 PM

Thank you!!!!!!!!!!!!!!!!!!!!!!!!!!!!!!!!!!!!!!!!!!!!!!!!!!!!!!!!!

0 reply
lilraychull 13 Mar 26, 2017 12:35 PM

Absolutely fantastic!

0 reply
mhlewe1 10 Oct 31, 2017 11:40 PM

Thanks for making this! Love BTS

guest
You may want to rate the tab now too:
select rating
Wanna post a correction for this tab? Suggest correction