Oops, an error
Loading. Please wait.

Shameful Dread tab

version 2
version 2

Whole song

  • Complete transcription of the song except for the ... Show more
34 views 1 this week
no commentswrite comment
1 2 3 4 5
3 more votes to show rating
add to favorites
×
Save as Personal and add changes to this tab that will be seen only by you. Learn more ›
×
You can save this tab as Personal to edit and correct it or add notes. All changes will be seen only by you. Learn more »
launch autoscroll
font size
0
reset
how to read this tab
guitar tuner
edit
Autoscroll
slow
fast
+/-
esc
set tempo
stop
About this tab version
Complete transcription of the song except for the extended jam sections which sound improvised and are hard to transcribe down, although I have included the scale that they are played on. Was this info helpful? Yes No
Standard Tuning
No Capo

[Verse] 
(0:00 - 0:56)
     E    A    F#   A
e|----0---------2---------|
B|----0----2----2----2----|
G|----1----2----3----2----|
D|----2----2----4----2----|
A|----2----0----4----0----|
E|----0---------2---------|

(Repeat this for quite some time.)

[Pre-Chorus] 
(0:56 - 1:04)
   Emaj7         C
e|----------7-----8----x--8----x--8---|
B|--------9---9---8----x--8----x--8---|
G|------8---------9----x--9----x--9---|
D|----9-----------10---x--10---x--10--|
A|--7-------------10---x--10---x--10--|
E|----------------8----x--8----x--10--|

(Play this four times)

[Chorus] 
(1:04 - 1:36)
     Esus2    A        C#sus2  F#m      Bsus2    F#     A
e|--------0--------------------------------------------------------------|
B|------7---7------5-------------------10-----2-------2-------5-------5--| 
G|----9----------6---6------6---/11-11------4---4---3---3---6---6---6----|
D|-------------7--------4-----------------4-------4-------7-------7------|
A|-----------------------------------------------------------------------|
E|-----------------------------------------------------------------------|

(Play this once and then the guitar then starts strumming these power chords instead.)

e|-----------------------|
B|-----------------------|
G|--9-----6-----4-----2--|
D|--9--7--6--4--4--4--2--|
A|--7--7--4--4--2--4--0--|
E|-----5-----2-----2-----|

(While another comes in and keeps playing this line)

e|----12--------------------------------------|
B|-------12-9--------9----10-9-10-12-10-9-----|
G|------------11---9---9------------------9---|
D|---------------9----------------------------|
A|--------------------------------------------|
E|--------------------------------------------|

e|--------12-12-------12-12-------12-12-------9-11--|
B|--12-12-------11-11-------10-10-------10-12-------|
G|--------------------------------------------------|
D|--------------------------------------------------|
A|--------------------------------------------------|
E|--------------------------------------------------|

(Then after this has been run through once a guitar starts playing in a G major pentatonic shape.)

[Verse 2] 
(1:36 - 2:25)
     E    A    F#   A
e|----0---------2---------|
B|----0----2----2----2----|
G|----1----2----3----2----|
D|----2----2----4----2----|
A|----2----0----4----0----|
E|----0---------2---------|

(The below phrase is the piano transcribed. Doug plays this bit when they play live on guitar.)

e|--12-0-7-0-5-0-4h5-4h5-0-2--2-2-2--5p4-5p4-5p4-5--|
B|--------------------------------------------------|
G|--------------------------------------------------|
D|--------------------------------------------------|
A|--------------------------------------------------|
E|--------------------------------------------------|

[Pre-Chorus 2] 
(2:25 - 2:42)
   Emaj7         C
e|----------7-----8----x--8----x--8---|
B|--------9---9---8----x--8----x--8---|
G|------8---------9----x--9----x--9---|
D|----9-----------10---x--10---x--10--| 
A|--7-------------10---x--10---x--10--|
E|----------------8----x--8----x--10--|

(This time play the Emaj7 much more lightly, and don't play it at all on the third repeat.)

[Bridge] 
(2:42 - 3:23)
   A5   B5    G5
e|------------------|
B|------------------|
G|------------------|
D|--(7)-/-(9)--(5)--|
A|--(7)-/-(9)--(5)--|
E|---5--/--7----3---|

   D               C#m             E
e|---------------------------------------------------|
B|---------------------------------------------------|
G|---------------------------------------------------|
D|----------4----------------------------------------|
A|--5-5-5-5---5-5-5-4-4-4-4-4-4-4-4-7-7-7-7-7-7-7-7--|
E|---------------------------------------------------|

(There sounds like a guitar just playing dead notes over the top of this,
you can achieve a similar sound by playing the other strings as dead notes during this)

(Also start soloing over this with the G major pentatonic again.)

[Verse 3] 
(3:23 - 5:10)
     E    A    F#   A
e|----0---------2---------|
B|----0----2----2----2----|
G|----1----2----3----2----|
D|----2----2----4----2----|
A|----2----0----4----0----|
E|----0---------2---------|

(This guitar line plays right at the start of the verse and repeats a few times throughout.)

e|------------------12-14-/16--12------12------------------|
B|------------12-14---------------12------12---------------|
G|--13-14-13---------------------------------14--13-14-13--|
D|---------------------------------------------------------|
A|---------------------------------------------------------|
E|---------------------------------------------------------|

(The rest is just going mad on an E major scale for much of the rest of this verse.)

[Chorus 2] 
(5:10 - 6:54)

(Strum these power chords)

e|-----------------------|
B|-----------------------|
G|--9-----6-----4-----2--|
D|--9--7--6--4--4--4--2--|
A|--7--7--4--4--2--4--0--|
E|-----5-----2-----2-----|

(This starts straight away this time, and is played on an acoustic)

e|----12--------------------------------------|
B|-------12-9--------9----10-9-10-12-10-9-----|
G|------------11---9---9------------------9---|
D|---------------9----------------------------|
A|--------------------------------------------|
E|--------------------------------------------|

e|--------12-12-------12-12-------12-12-------9-11--|
B|--12-12-------11-11-------10-10-------10-12-------|
G|--------------------------------------------------|
D|--------------------------------------------------|
A|--------------------------------------------------|
E|--------------------------------------------------|

(Then go mad on a G major pentatonic shape for the last time and stop at Nelson's laugh.)

(The acoustic guitar after that I can't quite work out.)


************************************

| x    Dead note
| /    Slide up
| h    Hammer-on
| p    Pull-off
| (n)  Ghost note

************************************

            
            
Suggest correction
Creating personal tab
Creating personal tab
You can edit any tab online and save it as your Personal.

You can edit, replace or remove any tab part or add personal notes – all changes will be seen only by you.

Personal tabs can be accessed anytime from any device, even offline.
Learn more »
Give kudos to tab author, rate the tab!
1 2 3 4 5
comments
print report bad tab
guest
You may want to rate the tab now too:
select rating
Wanna post a correction for this tab? Suggest correction