Oops, an error
Loading. Please wait.

Things Fall Apart chords

version 1
version 1

Whole song

Interactive

6,914 views 6 this week
1 commentread comment
1 2 3 4 5
x 6
add to favorites
×
Save as Personal and add changes to this tab that will be seen only by you. Learn more ›
×
You can save this tab as Personal to edit and correct it or add notes. All changes will be seen only by you. Learn more »
launch autoscroll
font size
0
reset
transpose
0
reset
display chords
guitar tuner
edit
Autoscroll
slow
fast
+/-
esc
set tempo
stop
Author
Difficulty
Strumming
There is no strumming pattern for this song yet. and get +5 IQ
---------------------------------------------------------------------
                             THINGS FALL APART – Built to Spill
---------------------------------------------------------------------
Tabbed by:
Email:

Main Riff

e|----10-8--8-7----------------------------------------------------|
B|-10------8-------------------------------------------------------|
G|-----------------------------------------------------------------|
D|-----------------------------------------------------------------|
A|-----------------------------------------------------------------|
E|-----------------------------------------------------------------|

Tuning:
Dm    F              C            G
      came into the darkness from out of the blue 
Dm    F              C            G
      I don't know much but I know what to do 
Dm    F              C            G
       froze in my mind I believed it so long 
Dm    F              C            G
       alright I'll admit I was wrong 

All other verses/choruses continue Dm, F, C, G pattern

Bridge

Am     F          Dm          G
       if no one thinks of no one 
Am     F          Dm          G
 then no one believes in no one 
Am     F          Dm          G
 and no one fucks with no one 
Am     F          Dm          G
 when no one's afraid of no one 

Solo is in Dm pentatonic and also D Dorian

            
            
Suggest correction
Creating personal tab
Creating personal tab
You can edit any tab online and save it as your Personal.

You can edit, replace or remove any tab part or add personal notes – all changes will be seen only by you.

Personal tabs can be accessed anytime from any device, even offline.
Learn more »
comments
print report bad tab
1 comment total.
0 reply
ReusableCatMilk 31 Dec 14, 2010 08:40 PM

intro is actually closer to: e---10---------8p7-7--
B-10---10-10--8-------
G-----------10--------

guest
You may want to rate the tab now too:
select rating
Wanna post a correction for this tab? Suggest correction