Oops, an error
Loading. Please wait.

Trimmed And Burning tab

2,247 views 3 this week
3 commentsread comments
1 2 3 4 5
x 3
add to favorites
×
Save as Personal and add changes to this tab that will be seen only by you. Learn more ›
×
You can save this tab as Personal to edit and correct it or add notes. All changes will be seen only by you. Learn more »
launch autoscroll
font size
0
reset
how to read this tab
guitar tuner
edit
Autoscroll
slow
fast
+/-
esc
set tempo
stop
Difficulty
intermediate
The basic progression throughout this song is:

B, D, E, D, A, B, D. All in powerchords, you'll have to listen to it to get the timing.

The bridge section is basically;

e|--------------------------------------------------------------------|
B|--------------------------------------------------------------------|
G|--------------------------------------------------------------------|
D|--------------------------------------------------------------------|
A|-----------------------------2-0------------------------------------|
E|-2-0-2-0-2-4-5-4-2-0-2-2-2-2----------------------------------------|

The melody guitar lines are in B minor pentatonic at the 5th and 7th position, best to improvise them.

This is my first tab and it's from memory so sorry if it's not perfect!!

Cheers!!

            
            
Suggest correction
Creating personal tab
Creating personal tab
You can edit any tab online and save it as your Personal.

You can edit, replace or remove any tab part or add personal notes – all changes will be seen only by you.

Personal tabs can be accessed anytime from any device, even offline.
Learn more »
Give kudos to tab author, rate the tab!
1 2 3 4 5
comments
print report bad tab
3 comments total.
+1 reply
Savage Animal 446 Sep 24, 2010 07:32 AM

should be this:

e|--------------------------------------------------------------------|
B|--------------------------------------------------------------------|
G|--------------------------------------------------------------------|
D|--------------------------------------------------------------------|
A|----------------------------/4-2------------------------------------|
E|-2-0-2-0-2-4-5-4-2-4-0-0-0-0----------------------------------------|

0 reply
terrible_at_guitar_317 10 Nov 25, 2017 09:22 PM

I think the chord progression is : B powechord thing (B, F#,B) to Bm, D , E, G, D, E, G

0 reply
terrible_at_guitar_317 10 Nov 25, 2017 09:23 PM

D, E, G are open chords

guest
Wanna post a correction for this tab? Suggest correction