Oops, an error
Loading. Please wait.

When Not Being Stupid Is Not Enough tab

1,541 views 3 this week
1 commentread comment
1 2 3 4 5
1 last vote to show rating
add to favorites
×
Save as Personal and add changes to this tab that will be seen only by you. Learn more ›
×
You can save this tab as Personal to edit and correct it or add notes. All changes will be seen only by you. Learn more »
launch autoscroll
font size
0
reset
how to read this tab
guitar tuner
edit
Autoscroll
slow
fast
+/-
esc
set tempo
stop
Author
Difficulty
-----------------------------------------------------------------------
WHEN NOT BEING STUPID IS NOT ENOUGH
Built to Spill
-----------------------------------------------------------------------
Tabbed by: Benson
Email: dontcallmebenny@hotmail.com

Tuning: Standard

Intro: For the first 3 minutes, it’s just D and G, with the lead guitar playing in D major:

D Major Scale: D E F# G A B C#
    
e|-------------------------------------9-10----------------|
B|-------------------------------10-12---------------------|
G|-----------------------9-11-12---------------------------|
D|---------------9-11-12-----------------------------------|
A|-------9-10-12-------------------------------------------|
E|-10-12---------------------------------------------------|

D              G      D        G
When not being stupid is not enough
D              B   Bb   D      G
When not being wrong is not enough
Emin           A            
Waited such a long time
Emin   A
Have I waited too long?
D                    G     D                   G
In a world that’s so bad It’s not hard to feel good
D                B Bb
You do what you have to
D                  G
Not as much as you could
Emin                    A
Just because you’re not wrong
Emin           A
Doesn’t mean that you’re right




Octave Bit – play 4 times
e|-------------------|
B|-------------------|
G|-7-11-9-7-9--------|
D|------------9-8----|
A|-5-9--7-5-7--------|
E|------------7-6----|

The last time play this over the Emin and A chords
e|-----------------------------|
B|-----------------------------|
G|-9-9-11-9-11-14-14-12-11-----|
D|-----------------------------|
A|-7-7-9--7-9--12-12-10-9------|
E|-----------------------------|

D              B Bb   D      B Bb
When not being stupid is not enough
D              B Bb D       B Bb
When not being evil is not enough
Emin           A
You look all around you
Emin           A
You never look at the best stuff 

Outro Chords Rhythm -  all in power chords

D   C#  B A G#      G
//////////////////////////// Play this twice

F#  E   B   G   A
///////////////////////////Then back to the above section, and repeat

For the outro solo, again use D major

            
            
Suggest correction
Creating personal tab
Creating personal tab
You can edit any tab online and save it as your Personal.

You can edit, replace or remove any tab part or add personal notes – all changes will be seen only by you.

Personal tabs can be accessed anytime from any device, even offline.
Learn more »
Give kudos to tab author, rate the tab!
1 2 3 4 5
comments
print report bad tab
1 comment total.
0 reply
ranciday 132 May 15, 2011 05:12 AM

Actually I think the two main chords for the song are:

e|-2-----2------|
B|-3-----3------|
G|-2-----0------|
D|-0-----0------|
A|-------2------|
E|--------------|

guest
You may want to rate the tab now too:
select rating
Wanna post a correction for this tab? Suggest correction