Oops, an error
Loading. Please wait.
We have an official Cries In Vain tab made by UG professional guitarists. Check out the tab »
×
88,650 views 15 this week
21 commentsread comments
1 2 3 4 5
x 42
add to favorites
×
Save as Personal and add changes to this tab that will be seen only by you. Learn more ›
×
You can save this tab as Personal to edit and correct it or add notes. All changes will be seen only by you. Learn more »
launch autoscroll
font size
0
reset
how to read this tab
guitar tuner
backing track
0:00
0:00
edit
Autoscroll
slow
fast
+/-
esc
set tempo
stop
[Intro]

 Gtr 1 w/ phaser or wah
D|---------------------------------|---------------------------------|
A|---------------------------------|---------------------------------|
F|---5---4-----------5---4---------|---5---4-----------5---7---4-4-4-|
C|-----------5---7-----------5---2-|-----------5---7-----------------|
G|-0---0---0---0---0---0---0---0---|-0---0---0---0---0---0---0-------|
C|---------------------------------|---------------------------------|
PM.   .   .   .   .   .   .   .     .   .   .   .   .   .   .

 Gtr 1
D|-----------------0------------------------|            |-----------------0------------------------|
A|-----------------6------------------------|            |-----------------0------------------------|
F|-----------------5------------------------|            |--------------2--4------------------------|
C|-3-3-3-3-3-3--3--3------------------------|            |-2-2-2-2-2-2--2--2------------------------|
G|-3-3-3-3-3-3--3--3------------------------|            |-0-0-0-0-0-0--0--0------------------------|
C|-3-3-3-3-3-3--3--3------------------------|            |------------------------------------------|
 | . . . . . .                                   X2      | . . . . . .  
              X2
 |                                                       |
 |Gtr 2                                                  |
D|------------------------------------------|            |------------------------------------------|
A|------------------------------------------|            |------------------------------------------|
F|----------------5-4---7-5---4-5---4-5-----|            |----------------5-4---7-5---4-5---4-5-----|
C|--------------------5-----5-----5---------|            |--------------------5-----5-----5---------|
G|------------------------------------------|            |------------------------------------------|
C|------------------------------------------|            |------------------------------------------|

D|-----------------0------------------------|            |-----------------0------------------------|
A|-----------------6------------------------|            |-----------------0------------------------|
F|-----------------5------------------------|            |--------------2--4------------------------|
C|-3-3-3-3-3-3--3--3------------------------|            |-2-2-2-2-2-2--2--2------------------------|
G|-3-3-3-3-3-3--3--3------------------------|            |-0-0-0-0-0-0--0--0------------------------|
C|-3-3-3-3-3-3--3--3------------------------|            |------------------------------------------|
 | . . . . . .                                           | . . . . . .
 |                                                       |
 |Gtr 2                                                  |
D|------------------------------------------|            |---------------------------------------|
A|------------------------------------------|            |---------------------------------------|
F|----------------5-4---7-5---4-5---4-5-----|            |----------------5-4---7-5---4-5---4-5--|
C|--------------------5-----5-----5---------|   X2       |--------------------5-----5-----5------|
G|------------------------------------------|            |---------------------------------------|
C|------------------------------------------|            |---------------------------------------|
 |                                                       |
 |                                                       |
 |Gtr 3                                                  |
D|----------------------3-------------------|            |----------------------3-------------------|
A|----------------5-3-----5---3-5---3-5-----|            |----------------5-3-----5---3-5---3-5-----|
F|--------------------5-----5-----5---------|            |--------------------5-----5-----5---------|
C|------------------------------------------|            |------------------------------------------|
G|------------------------------------------|            |------------------------------------------|
C|------------------------------------------|            |------------------------------------------|

D|-----------------0----------------------------------|
A|-----------------0----------------------------------|
F|--------------2--4----------------------------------|
C|-2-2-2-2-2-2--2--2----------------------------------|
G|-0-0-0-0-0-0--0--0-----\\\\\\\\\\\\\\\\-------------|
C|----------------------------------------------------|
 | . . . . . .            Pick scrape
 |
 |                       ~~~~~~~~
D|---------------------------------------------|
A|---------------------------------------------|
F|----------------5-4---5--------(5)\\---------|
C|--------------------5------------------------|
G|---------------------------------------------|
C|---------------------------------------------|
 |
 |
 |                       ~~~~~~~~
D|---------------------------------------------|
A|----------------5-3---6--------(6)\\---------|
F|--------------------5------------------------|
C|---------------------------------------------|
G|---------------------------------------------|
C|---------------------------------------------|

[Verse]
 Guitar 1 and 2.. Guitar 1 Play Higher Harmony
                                                  AH
D|-------------------|-----|-------------------|--------------------|
A|-------------------|-----|-------------------|--6\\5--------------|
F|-2-2-2-2-2-2-2--2--|-----|-2-2-2-2-2-2-2--2--|------7-5/7\\5\\4---|
C|-2-2-2-2-2-2-2--2--|-----|-2-2-2-2-2-2-2--2—-|--3\\2-0------------|
G|-0-0-0-0-0-0-0--0--|-----|-0-0-0-0-0-0-0--0--|--------3/5\\3\\2---|
C|-------------------|-----|-------------------|--------------------|
  . . . . . .               . . . . . .

D|-------------------|-----|-------------------|----------------|
A|-------------------|-----|-------------------|----------------|
F|-2-2-2-2-2-2-2--2--|-----|-2-2-2-2-2-2-2--2--|-2-2------------|
C|-2-2-2-2-2-2-2--2--|-----|-2-2-2-2-2-2-2--2--|-2-2------------|
G|-0-0-0-0-0-0-0--0--|-----|-0-0-0-0-0-0-0--0--|-0-0------------|
C|-------------------|-----|-------------------|----------------|
  . . . . . .               . . . . . .         .

Guitar 2 Play Higher Harmony

                ~~~~~~               ~~~~ AH
D|------------|-------|------------|-------------------------|
A|------------|-------|------------|-------------------------|
F|-------2--5-|-4-----|-------2--5-|-4----2/3\\2-------------|
C|-2-2-2-2--7-|-5-----|-2-2-2-2--7-|-5----------3/5\\3\\2----|
G|-0-0-0-0----|-------|-0-0-0-0----|-------------------------|
C|------------|-------|------------|-------------------------|
   . . .                . . .

                ~~~~~~               ~~~~ AH
D|------------|-------|------------|-------------------------|
A|------------|-------|------------|-------------------------|
F|-------2--5-|-7-----|-------2--5-|-4----2/3\\2-------------|
C|-2-2-2-2--7-|-5-----|-2-2-2-2--7-|-5----------3/5\\3\\2----|
G|-0-0-0-0----|-------|-0-0-0-0----|-------------------------|
C|------------|-------|------------|-------------------------|
   . . .                . . .

[Chorus]
 Both Guitars
D|-----------------0---------------|
A|-----------------6---------------|
F|-----------------5---------------| X2
C|-3-3-3-3-3-3--3--3---------------|
G|-3-3-3-3-3-3--3--3---------------|
C|-3-3-3-3-3-3--3--3---------------|
   . . . . . .

  Gtr1
D|-----------------0---------------|
A|-----------------0---------------|
F|--------------2--4---------------|
C|-2-2-2-2-2-2--2--2---------------|
G|-0-0-0-0-0-0--0--0---------------|
C|---------------------------------|
 | . . . . . .                         X2
 |
 |Gtr 2
D|---------------------------------|
A|---------------------------------|
F|-5-----4---4-----5-----4---4-----|
C|---5-5---5---3-5---5-5---5---3-5-|
G|---------------------------------|
C|---------------------------------|
     . .   .   . .   . .   .   . .

 Both Guitars
D|-----------------0---------------|
A|-----------------6---------------|
F|-----------------5---------------| X2
C|-3-3-3-3-3-3--3--3---------------|
G|-3-3-3-3-3-3--3--3---------------|
C|-3-3-3-3-3-3--3--3---------------|
   . . . . . .

  Gtr 1
D|-----------------0---------------|---------------|
A|-----------------0---------------|---------------|
F|--------------2--4---------------|----------2--2-|
C|-2-2-2-2-2-2--2--2-----------2-2-|-2-2-2-2--2--2-|
G|-0-0-0-0-0-0--0--0-----------0-0-|-0-0-0-0--0--0-|
C|---------------------------------|---------------|
 | . . . . . .                 . .   . . . .
 |
 |Gtr 2
D|---------------------------------|---------------|
A|---------------------------------|---------------|
F|-5-----4---4-----5-----4---4-----|-5-----4---4---|
C|---5-5---5---3-5---5-5---5---3-5-|---5-5---5---3-|
G|---------------------------------|---------------|
C|---------------------------------|---------------|
 |   . .   .   . .   . .   .   . .     . .   .
 |
 |Gtr 3
D|---------------------------------|---------------|
A|-5-----3---3-----5-----3---3-----|-5-----3---3---|
F|---5-5---5---4-5---5-5---5---4-5-|---5-5---5---4-|
C|---------------------------------|---------------|
G|---------------------------------|---------------|
C|---------------------------------|---------------|
     . .   .   . .   . .   .   . .     . .   .

 Both Guitars
D|-----------------|
A|-----------------|
F|---------------2-|
C|-3-2-0---0-----2-|
G|-------3---3-2-0-|
C|-----------------|

  Guitar 1 intro w/ phaser or wah

[Verse]

[Chorus]

Bridge in 3 timing
          4

  Gtr 1
D|--------------------------------------------------|
A|--------------------------------------------------|
F|--------------------------------------------------|
C|-7-7-7-7-7-7-7-7-7-7-7-7-7-7-7-7-7-7--7-7-7-7-7-7-| X4
G|-0-0-0-0-0-0-8-8-8-8-8-8-101010101010-7-7-7-7-7-7-|
C|--------------------------------------------------|
   . . . . . . . . . . . . . . . . . .  . . . . . .

  Gtr 1
D|--------------------------------------------------|
A|--------------------------------------------------|
F|--------------------------------------------------|
C|-7-7-7-7-7-7-7-7-7-7-7-7-7-7-7-7-7-7--7-7-7-7-7-7-|
G|-0-0-0-0-0-0-8-8-8-8-8-8-101010101010-7-7-7-7-7-7-|
C|--------------------------------------------------|
 | . . . . . . . . . . . . . . . . . .  . . . . . .
 |                                                           X3
 |Gtr 2
D|--------------------------------------------------|
A|--------------------------------------------------|
F|-5-5-5-5-5-5-2-2-2-2-2-2-4-4-4-4-4-4--------------|
C|-7-7-7-7-7-7-3-3-3-3-3-3-5-5-5-5-5-5--5-5-5-5-5-5-|
G|--------------------------------------7-7-7-7-7-7-|
C|--------------------------------------------------|
   . . . . . . . . . . . . . . . . . .  . . . . . .

  Gtr 1
D|--------------------------------------------------|
A|--------------------------------------------------|
F|--------------------------------------------------|
C|-7-7-7-7-7-7-7-7-7-7-7-7-7-7-7-7-7-7--7-----------|
G|-0-0-0-0-0-0-8-8-8-8-8-8-101010101010-7-----------|
C|--------------------------------------------------|
 | . . . . . . . . . . . . . . . . . .
 |
 |Gtr 2
D|--------------------------------------------------|
A|--------------------------------------------------|
F|-5-5-5-5-5-5-2-2-2-2-2-2-4-4-4-4-4-4--------------|
C|-7-7-7-7-7-7-3-3-3-3-3-3-5-5-5-5-5-5--5-----------|
G|--------------------------------------7-----------|
C|--------------------------------------------------|
   . . . . . . . . . . . . . . . . . .

D|-------------------------------------------------------------|
A|-------------------------------------------------------------|
F|-------------------------------------------------------------|
C|-7------------3------------5----------2----------------------|
G|-7------------3------------5----------2----------------------|
C|-7------------3------------5----------2----------------------|
 |
 |                                                                X2
 |
D|-------------------------------------------------------------|
A|-------------------------------------------------------------|
F|-----9---9-10-----9---9-10-------9----9-10-10/12-10-9-10-9-7-|
C|-7-7---7-----------------------------------------------------|
G|--------------8-8---8------10-10---10------------------------|
C|-------------------------------------------------------------|

D|-------------------------------------------------------------------|
A|-------------------------------------------------------------------|
F|-----9---9-10-----9---9-10-------9----9-10-12-10h12p10\\9-10-9-7---|
C|-7-7---7-----------------------------------------------------------|
G|--------------8-8---8------10-10---10------------------------------|
C|-------------------------------------------------------------------|
 |
 |                                                                  X2
 |
D|-------------------------------------------------------------------|
A|------8--8/10-----8---8/10-------8----8/10-------------------------|
F|--------------------------------------------9-7-h9-p7\\5--7--5-4---|
C|-1010--10-----7-7---7------9--9-----9------------------------------|
G|-------------------------------------------------------------------|
C|-------------------------------------------------------------------|

Then Both Guitar Pick Scrape

[Chorus]

[Outro]

Repeat Gtr 1 intro riff w/ phaser X5

 Gtr 2 Enter on second time of intro riff
D|-----------------------------|-------------------------------|
A|-----------------------------|-------------------------------|
F|-2-2--2-2-2--2-2-2--2-2-2--2-|-2-2--2-2-2--2-----------------|
C|-2-2--2-2-2--2-2-2--2-2-2--2-|-2-2--2-2-2--2-3-3-3-3-3-3-3-3-|  X4
G|-0-0--0-0-0--0-0-0--0-0-0--0-|-0-0--0-0-0--0-3-3-3-3-3-3-3-3-|
C|-----------------------------|---------------3-3-3-3-3-3-3-3-|
   . .  . . .  . . .  . . .  .   . .  . . .  . . . . . . . . .
               each time is repeated with less palm mute

 Both guitars
               * - Natural Harmonics
D|------------------------|     |-----------------|
A|-----------5*5*5*5*5*5*-|     |-----------------|
F|-2-2--2-2---------------|     |-----------------|
C|-2-2--2-2---------------| X3  |-3-3-3-3-3---3---|
G|-0-0--0-0---------------|     |-3-3-3-3-3h5-3---|
C|------------------------|     |-3-3-3-3-3---3---|

  Gtr 1
D|------------------------|     |-----------------|
A|-----------5*5*5*5*5*5*-|     |-----------------|
F|-2-2--2-2---------------|     |-----------------|
C|-2-2--2-2---------------| X3  |-3-3-3-3-3-3-3-3-|
G|-0-0--0-0---------------|     |-3-3-3-3-3-3-3-3-|
C|------------------------|     |-3-3-3-3-3-3-3-3-|
 |                              | . . . . . . . .
 |Gtr 2                         |
D|------------------------|     |-----------------|
A|------------------------|     |-----------------|
F|-2-2--2-2--5*5*5*5*5*5*-|     |-----------------|
C|-2-2--2-2---------------| X3  |-3-3-3-3-3-3-3-3-|
G|-0-0--0-0---------------|     |-3-3-3-3-3-3-3-3-|
C|------------------------|     |-3-3-3-3-3-3-3-3-|
                                  . . . . . . . .

D|---|
A|---|
F|-2-|
C|-2-|
G|-0-|
C|---|

Cheers hope its a decent tab



************************************

| PM  Palm mute
| \   Slide down
| .   Staccato
| ~   Vibrato
| /   Slide up
| h   Hammer-on
| p   Pull-off

************************************

            
            
Suggest correction
Creating personal tab
Creating personal tab
You can edit any tab online and save it as your Personal.

You can edit, replace or remove any tab part or add personal notes – all changes will be seen only by you.

Personal tabs can be accessed anytime from any device, even offline.
Learn more »
comments
print report bad tab
21 comments total. Showing first comments.
+1 reply
kirk_is_god 56 Nov 28, 2005 10:12 PM

one of my fav songs off the album great stuff cool ass tab..

0 reply
sam b 10,142 Jun 19, 2006 01:53 AM

Great tab dude
5 *'s no question

0 reply
sam b 10,142 Jul 05, 2006 02:47 AM

RIGHT ok here we go. I take the 5* comment back
Although the intro sounds correct on your tab, it's not the way Padge plays it. He plays it like this......
|----------------------------------------|
|----------------------------------------|
|----------------------------------------|
|----10---9--------7----10---9-----------|
|--0----0---0-10-0----0----0---0-10-0-7--|
|----------------------------------------|
PM . . . . . . . .

|----------------------------------------|
|----------------------------------------|
|----------------------------------------|
|----10---9--------7----10---12---9-9-9--|
|--0----0---0-10-0----0----0-------------|
|----------------------------------------|
PM . . . . . .

It's easier to put your 1st finger at 7 on all four lower strings. erm... the bar chord :S - i think that what its called ; )

If you dont believe me go to ..
http://www.uvtv.info/bulletformyvalentine.php - and click on 'Cries in Vain' AND SEE FOR YOURSELF!!

guest
You may want to rate the tab now too:
select rating
Wanna post a correction for this tab? Suggest correction