Oops, an error
Loading. Please wait.
We have an official Cries In Vain tab made by UG professional guitarists. Check out the tab »
×
2,412 views 1 this week
1 commentread comment
1 2 3 4 5
x 4
add to favorites
×
Save as Personal and add changes to this tab that will be seen only by you. Learn more ›
×
You can save this tab as Personal to edit and correct it or add notes. All changes will be seen only by you. Learn more »
launch autoscroll
font size
0
reset
how to read this tab
guitar tuner
backing track
0:00
0:00
edit
Autoscroll
slow
fast
+/-
esc
set tempo
stop
Cries In Vain
Bullet For My Valentine
The Poison
Drop C- CGCFAD


-Intro-
Padge- Clean w/ delay & wah
D|---------------------------------------------------------------------------|
A|---------------------------------------------------------------------------|
F|---------------------------------------------------------------------------|
C|---10---9-------------10---9------------10---9-------------10---12---9-9-9-|
G|-0----0---0-10-0-12-0----0---0-10-0-7-0----0---0-10-0-12-0----0----0-------|
C|---------------------------------------------------------------------------|
   -    -   -    -    -    -   -    -   -    -   -    -    -    -    -

Matt
D|--------1~~~~~~~~~~~~~~~~~~~~~--------1~~~~~~~~~~~~~~~~~~~~~|
A|--------1~~~~~~~~~~~~~~~~~~~~~--------1~~~~~~~~~~~~~~~~~~~~~|
F|--------x-----------------------------x---------------------|
C|------3-3~~~~~~~~~~~~~~~~~~~~~------3-3~~~~~~~~~~~~~~~~~~~~~|
G|-3333-3-3~~~~~~~~~~~~~~~~~~~~~-3333-3-3~~~~~~~~~~~~~~~~~~~~~|
C|-3333-3-3~~~~~~~~~~~~~~~~~~~~~-3333-3-3~~~~~~~~~~~~~~~~~~~~~|
   ----                          ----
Padge
D|------------------------------------------------------------|
A|------------------------------------------------------------|
F|--------5-4-0-7-5-0-4-5-0-4-5---------5-4-0-7-5-0-4-5-0-4-5-|
C|------------------------------------------------------------|
G|------------------------------------------------------------|
C|------------------------------------------------------------|

Matt
D|--------0~~~~~~~~~~~~~~~~~~~~~--------0~~~~~~~~~~~~~~~~~~~~~|
A|--------0~~~~~~~~~~~~~~~~~~~~~--------0~~~~~~~~~~~~~~~~~~~~~|
F|------2-2~~~~~~~~~~~~~~~~~~~~~------2-2~~~~~~~~~~~~~~~~~~~~~|
C|-2222-2-2~~~~~~~~~~~~~~~~~~~~~-2222-2-2~~~~~~~~~~~~~~~~~~~~~|
G|-0000-0-0~~~~~~~~~~~~~~~~~~~~~-0000-0-0~~~~~~~~~~~~~~~~~~~~~|
C|------------------------------------------------------------|
   ----                          ----
Padge
D|------------------------------------------------------------|
A|------------------------------------------------------------|
F|--------5-4-0-7-5-0-4-5-0-4-5---------5-4-0-7-5-0-4-5-0-4-5-|
C|------------------------------------------------------------|
G|------------------------------------------------------------|
C|------------------------------------------------------------|

Matt
D|--------1~~~~~~~~~~~~~~~~~~~~~~~--------1~~~~~~~~~~~~~~~~~~~~~~~|
A|--------1~~~~~~~~~~~~~~~~~~~~~~~--------1~~~~~~~~~~~~~~~~~~~~~~~|
F|--------x-------------------------------x-----------------------|
C|------3-3~~~~~~~~~~~~~~~~~~~~~~~------3-3~~~~~~~~~~~~~~~~~~~~~~~|
G|-3333-3-3~~~~~~~~~~~~~~~~~~~~~~~-3333-3-3~~~~~~~~~~~~~~~~~~~~~~~|
C|-3333-3-3~~~~~~~~~~~~~~~~~~~~~~~-3333-3-3~~~~~~~~~~~~~~~~~~~~~~~|
   ----                            ---- 
Padge
D|----------------------------------------------------------------|
A|----------------------------------------------------------------|
F|--------5-4-0--7-5--0-4-5-0-4-5---------5-4-0--7-5--0-4-5-0-4-5-|
C|----------------------------------------------------------------|
G|----------------------------------------------------------------|
C|----------------------------------------------------------------|
Gtr 3
D|----------------------------------------------------------------|
A|----------------------------------------------------------------|
F|-------10-9-0-12-10-0-7-9-0-7-9--------10-9-0-12-10-0-7-9-0-7-9-|
C|----------------------------------------------------------------|
G|----------------------------------------------------------------|
C|----------------------------------------------------------------|


Matt
D|--------0~~~~~~~~~~~~~~~~~~~~~~~--------------------|
A|--------0~~~~~~~~~~~~~~~~~~~~~~~--------------------|
F|------2-2~~~~~~~~~~~~~~~~~~~~~~~------2-------------|
C|-2222-2-2~~~~~~~~~~~~~~~~~~~~~~~-2222-2-------------|
G|-0000-0-0~~~~~~~~~~~~~~~~~~~~~~~-0000-0-x\\\\\\\\\\-|
C|----------------------------------------x\\\\\\\\\\-|
   ----                            ----
Padge
D|----------------------------------------------------|
A|----------------------------------------------------|
F|--------5-4-0--7-5--0-4-5-0-4-5---------5-4-0--5~~~-|
C|----------------------------------------------------|
G|----------------------------------------------------|
C|----------------------------------------------------|
Gtr 3
D|----------------------------------------------------|
A|----------------------------------------------------|
F|-------10-9-0-12-10-0-7-9-0-7-9--------10-9-0-10~~~-|
C|----------------------------------------------------|
G|----------------------------------------------------|
C|----------------------------------------------------|


-Verse-
Matt & Padge
D|--------------------------------------------|
A|--------------------------------------------|
F|------2-2-------------2-2-------------------|
C|-2222-2-2--------2222-2-2----3*p2p0---------|
G|-0000-0-0--------0000-0-0-----------3/5\3-2-|
C|--------------------------------------------|
   ----            ----
"Lord, you know I've cried, a thousand tears a night

D|-----------------------------|
A|-----------------------------|
F|------2-2-------------2-2--2-|
C|-2222-2-2--------2222-2-2--2-|
G|-0000-0-0--------0000-0-0--0-|
C|-----------------------------|
   ----            ----
...But nothing seems to quench the thirst

You keep on craving!


Matt
D|---------------------------------------------------|
A|---------------------------------------------------|
F|-------2---5-4~~~~~~-------2---5-4~----------------|
C|-2-2-2-2-2-----------2-2-2-2-2------3*p2p0---------|
G|-0-0-0-0-0-----------0-0-0-0-0-------------3/5\3-2-|
C|---------------------------------------------------|
   - - -   -           - - -   -
Padge
D|---------------------------------------------------|
A|---------------------------------------------------|
F|-------2---7-5~~~~~~-------2---7-5~----------------|
C|-2-2-2-2-2-----------2-2-2-2-2------3*p2p0---------|
G|-0-0-0-0-0-----------0-0-0-0-0-------------3/5\3-2-|
C|---------------------------------------------------|
   - - -   -           - - -   -
...But now I need an answer to my prayers and you're not there

Matt
D|---------------------------------------------------|
A|---------------------------------------------------|
F|-------2---5-7~~~~~~-------2---5-4~----------------|
C|-2-2-2-2-2-----------2-2-2-2-2------3*p2p0---------|
G|-0-0-0-0-0-----------0-0-0-0-0-------------3/5\3-2-|
C|---------------------------------------------------|
   - - -   -           - - -   -
Padge
D|---------------------------------------------------|
A|---------------------------------------------------|
F|-------2---7-5~~~~~~-------2---7-5~----------------|
C|-2-2-2-2-2-----------2-2-2-2-2------3*p2p0---------|
G|-0-0-0-0-0-----------0-0-0-0-0-------------3/5\3-2-|
C|---------------------------------------------------|
   - - -   -           - - -   -
...So why I think you listen, LIIISTEN!!!"


-Chorus-
Matt & Padge
D|--------1~~~~~~~~~~~~~~~~~~~~~--------1~~~~~~~~~~~~~~~~~~~~~|
A|--------1~~~~~~~~~~~~~~~~~~~~~--------1~~~~~~~~~~~~~~~~~~~~~|
F|--------x-----------------------------x---------------------|
C|------3-3~~~~~~~~~~~~~~~~~~~~~------3-3~~~~~~~~~~~~~~~~~~~~~|
G|-3333-3-3~~~~~~~~~~~~~~~~~~~~~-3333-3-3~~~~~~~~~~~~~~~~~~~~~|
C|-3333-3-3~~~~~~~~~~~~~~~~~~~~~-3333-3-3~~~~~~~~~~~~~~~~~~~~~|
   ----                          ----
"HAS NO ONE TOLD YOU!!! Your Cries are all In Vain...

Matt
D|--------0~~~~~~~~~~~~~~~~~~~~~~~--------0~~~~~~~~~~~~~~~~~~~~~~~-|
A|--------0~~~~~~~~~~~~~~~~~~~~~~~--------0~~~~~~~~~~~~~~~~~~~~~~~-|
F|------2-2~~~~~~~~~~~~~~~~~~~~~~~------2-2~~~~~~~~~~~~~~~~~~~~~~~-|
C|-2222-2-2~~~~~~~~~~~~~~~~~~~~~~~-2222-2-2~~~~~~~~~~~~~~~~~~~~~~~-|
G|-0000-0-0~~~~~~~~~~~~~~~~~~~~~~~-0000-0-0~~~~~~~~~~~~~~~~~~~~~~~-|
C|-----------------------------------------------------------------|
   ----                            ----
Padge
D|-----------------------------------------------------------------|
A|-----------------------------------------------------------------|
F|-5-----4---4-----5-----4---4-----5-----4---4-----5-----4---4-----|
C|---5-5---5---3-5---5-5---5---3-5---5-5---5---3-5---5-5---5---3-5-|
G|-----------------------------------------------------------------|
C|-----------------------------------------------------------------|
     - -   -   - -   - -   -   - -   - -   -   - -   - -   -   - -
...And everyone keeps trying to take that all away...

Matt & Padge
D|--------1~~~~~~~~~~~~~~~~~~~~~--------1~~~~~~~~~~~~~~~~~~~~~|
A|--------1~~~~~~~~~~~~~~~~~~~~~--------1~~~~~~~~~~~~~~~~~~~~~|
F|--------x-----------------------------x---------------------|
C|------3-3~~~~~~~~~~~~~~~~~~~~~------3-3~~~~~~~~~~~~~~~~~~~~~|
G|-3333-3-3~~~~~~~~~~~~~~~~~~~~~-3333-3-3~~~~~~~~~~~~~~~~~~~~~|
C|-3333-3-3~~~~~~~~~~~~~~~~~~~~~-3333-3-3~~~~~~~~~~~~~~~~~~~~~|
   ----                          ----
"HAS NO ONE TOLD YOU!!! Your Cries are all In Vain...

Matt
D|--------0~~~~~~~~~~~~~~~~~~~~~~~--------0--------------------|
A|--------0~~~~~~~~~~~~~~~~~~~~~~~--------0--------------------|
F|------2-2~~~~~~~~~~~~~~~~~~~~~~~------2-2------------------2-|
C|-2222-2-2~~~~~~~~~~~~~~~~~~~~~~~-2222-2-2----3-2-0---0-----2-|
G|-0000-0-0~~~~~~~~~~~~~~~~~~~~~~~-0000-0-0----------3---3-2-0-|
C|-------------------------------------------------------------|
   ----                            ----
Padge
D|-------------------------------------------------------------|
A|-------------------------------------------------------------|
F|-5-----4---4-----5-----4---4-----5-----4---4---------------2-|
C|---5-5---5---3-5---5-5---5---3-5---5-5---5---3-2-0---0-----2-|
G|---------------------------------------------------3---3-2-0-|
C|-------------------------------------------------------------|
     - -   -   - -   - -   -   - -   - -   -
...YOUR CRIIIIIEESS!!!"


Padge- Clean w/ delay
D|---------------------------------------------------------------------------|
A|---------------------------------------------------------------------------|
F|---------------------------------------------------------------------------|
C|---10---9-------------10---9------------10---9-------------10---12---9-9-9-|
G|-0----0---0-10-0-12-0----0---0-10-0-7-0----0---0-10-0-12-0----0----0-------|
C|---------------------------------------------------------------------------|
   -    -   -    -    -    -   -    -   -    -   -    -    -    -    -


-Verse-
Matt & Padge
D|--------------------------------------------|
A|--------------------------------------------|
F|------2-2-------------2-2-------------------|
C|-2222-2-2--------2222-2-2----3*p2p0---------|
G|-0000-0-0--------0000-0-0-----------3/5\3-2-|
C|--------------------------------------------|
   ----            ----
"Lord, I can't disguise, the look inside my eyes

D|-----------------------------|
A|-----------------------------|
F|------2-2-------------2-2--2-|
C|-2222-2-2--------2222-2-2--2-|
G|-0000-0-0--------0000-0-0--0-|
C|-----------------------------|
   ----            ----
...The more I try to look away

The more I'm staring!


Matt
D|---------------------------------------------------|
A|---------------------------------------------------|
F|-------2---5-4~~~~~~-------2---5-4~----------------|
C|-2-2-2-2-2-----------2-2-2-2-2------3*p2p0---------|
G|-0-0-0-0-0-----------0-0-0-0-0-------------3/5\3-2-|
C|---------------------------------------------------|
   - - -   -           - - -   -
Padge
D|---------------------------------------------------|
A|---------------------------------------------------|
F|-------2---7-5~~~~~~-------2---7-5~----------------|
C|-2-2-2-2-2-----------2-2-2-2-2------3*p2p0---------|
G|-0-0-0-0-0-----------0-0-0-0-0-------------3/5\3-2-|
C|---------------------------------------------------|
   - - -   -           - - -   -
...But now I need an answer to my prayers and you're not there

Matt
D|---------------------------------------------------|
A|---------------------------------------------------|
F|-------2---5-7~~~~~~-------2---5-4~----------------|
C|-2-2-2-2-2-----------2-2-2-2-2------3*p2p0---------|
G|-0-0-0-0-0-----------0-0-0-0-0-------------3/5\3-2-|
C|---------------------------------------------------|
   - - -   -           - - -   -
Padge
D|---------------------------------------------------|
A|---------------------------------------------------|
F|-------2---7-5~~~~~~-------2---7-5~----------------|
C|-2-2-2-2-2-----------2-2-2-2-2------3*p2p0---------|
G|-0-0-0-0-0-----------0-0-0-0-0-------------3/5\3-2-|
C|---------------------------------------------------|
   - - -   -           - - -   -
...So why I think you listen, LIIISTEN!!!"


-Chorus-
Matt & Padge
D|--------1~~~~~~~~~~~~~~~~~~~~~--------1~~~~~~~~~~~~~~~~~~~~~|
A|--------1~~~~~~~~~~~~~~~~~~~~~--------1~~~~~~~~~~~~~~~~~~~~~|
F|--------x-----------------------------x---------------------|
C|------3-3~~~~~~~~~~~~~~~~~~~~~------3-3~~~~~~~~~~~~~~~~~~~~~|
G|-3333-3-3~~~~~~~~~~~~~~~~~~~~~-3333-3-3~~~~~~~~~~~~~~~~~~~~~|
C|-3333-3-3~~~~~~~~~~~~~~~~~~~~~-3333-3-3~~~~~~~~~~~~~~~~~~~~~|
   ----                          ----
"HAS NO ONE TOLD YOU!!! Your Cries are all In Vain...

Matt
D|--------0~~~~~~~~~~~~~~~~~~~~~~~--------0~~~~~~~~~~~~~~~~~~~~~~~-|
A|--------0~~~~~~~~~~~~~~~~~~~~~~~--------0~~~~~~~~~~~~~~~~~~~~~~~-|
F|------2-2~~~~~~~~~~~~~~~~~~~~~~~------2-2~~~~~~~~~~~~~~~~~~~~~~~-|
C|-2222-2-2~~~~~~~~~~~~~~~~~~~~~~~-2222-2-2~~~~~~~~~~~~~~~~~~~~~~~-|
G|-0000-0-0~~~~~~~~~~~~~~~~~~~~~~~-0000-0-0~~~~~~~~~~~~~~~~~~~~~~~-|
C|-----------------------------------------------------------------|
   ----                            ----
Padge
D|-----------------------------------------------------------------|
A|-----------------------------------------------------------------|
F|-5-----4---4-----5-----4---4-----5-----4---4-----5-----4---4-----|
C|---5-5---5---3-5---5-5---5---3-5---5-5---5---3-5---5-5---5---3-5-|
G|-----------------------------------------------------------------|
C|-----------------------------------------------------------------|
     - -   -   - -   - -   -   - -   - -   -   - -   - -   -   - -
...And everyone keeps trying to take that all away...

Matt & Padge
D|--------1~~~~~~~~~~~~~~~~~~~~~--------1~~~~~~~~~~~~~~~~~~~~~|
A|--------1~~~~~~~~~~~~~~~~~~~~~--------1~~~~~~~~~~~~~~~~~~~~~|
F|--------x-----------------------------x---------------------|
C|------3-3~~~~~~~~~~~~~~~~~~~~~------3-3~~~~~~~~~~~~~~~~~~~~~|
G|-3333-3-3~~~~~~~~~~~~~~~~~~~~~-3333-3-3~~~~~~~~~~~~~~~~~~~~~|
C|-3333-3-3~~~~~~~~~~~~~~~~~~~~~-3333-3-3~~~~~~~~~~~~~~~~~~~~~|
   ----                          ----
"HAS NO ONE TOLD YOU!!! Your Cries are all In Vain...

Matt
D|--------0~~~~~~~~~~~~~~~~~~~~~~~--------0--------------------|
A|--------0~~~~~~~~~~~~~~~~~~~~~~~--------0--------------------|
F|------2-2~~~~~~~~~~~~~~~~~~~~~~~------2-2------------------2-|
C|-2222-2-2~~~~~~~~~~~~~~~~~~~~~~~-2222-2-2----3-2-0---0-----2-|
G|-0000-0-0~~~~~~~~~~~~~~~~~~~~~~~-0000-0-0----------3---3-2-0-|
C|-------------------------------------------------------------|
   ----                            ----
Padge
D|-------------------------------------------------------------|
A|-------------------------------------------------------------|
F|-5-----4---4-----5-----4---4-----5-----4---4---------------2-|
C|---5-5---5---3-5---5-5---5---3-5---5-5---5---3-2-0---0-----2-|
G|---------------------------------------------------3---3-2-0-|
C|-------------------------------------------------------------|
     - -   -   - -   - -   -   - -   - -   -
...YOUR CRIIIIIEESS!!!"


-Breakdown-
Matt
D||---------------------------------------------------------||
A||o-------------------------------------------------------o||
F||---------------------------------------------------------||
C||--7-7-7-7-7-7-7-7-7-7-7-7--7--7--7--7--7--7-7-7-7-7-7-7--||
G||o-0-0-0-0-0-0-8-8-8-8-8-8-10-10-10-10-10-10-7-7-7-7-7-7-o||
C||---------------------------------------------------------||
     - - - - - - - - - - - - -  -  -  -  -  -  - - - - - -

D||---------------------------------------------------------||
A||o-------------------------------------------------------o||
F||---------------------------------------------------------||
C||--7-7-7-7-7-7-7-7-7-7-7-7--7--7--7--7--7--7-7-7-7-7-7-7--||
G||o-0-0-0-0-0-0-8-8-8-8-8-8-10-10-10-10-10-10-7-7-7-7-7-7-o||
C||---------------------------------------------------------||
     - - - - - - - - - - - - -  -  -  -  -  -  - - - - - -
"Your Criies Iin Vaain, your Criies Iin Vaaain...

Matt
D||---------------------------------------------------------||
A||o-------------------------------------------------------o||
F||---------------------------------------------------------||
C||--7-7-7-7-7-7-7-7-7-7-7-7--7--7--7--7--7--7-7-7-7-7-7-7--||
G||o-0-0-0-0-0-0-8-8-8-8-8-8-10-10-10-10-10-10-7-7-7-7-7-7-o||
C||---------------------------------------------------------||
     - - - - - - - - - - - - -  -  -  -  -  -  - - - - - -
Padge
D||---------------------------------------------------------||
A||o-------------------------------------------------------o||
F||--5-5-5-5-5-5--------------------------------------------||
C||--------------7-7-7-7-7-7-9--9--9--9--9--9--5-5-5-5-5-5--||
G||o-------------------------------------------------------o||
C||---------------------------------------------------------||
     - - - - - - - - - - - - -  -  -  -  -  -  - - - - - -
...Your Criies Iin Vaain, your Criies Iin Vaaain...

I LOOK AWAY!!!

Matt
D||-------------------------------------------------------------||
A||o-----------------------------------------------------------o||
F||--2~~~~~~~~~~~~~---------------------------------------------||
C||--2~~~~~~~~~~~~~-3~~~~~~~~~~~~~-5~~~~~~~~~~~~~-2~~~~~~~~~~~~-||
G||o-0~~~~~~~~~~~~~-3~~~~~~~~~~~~~-5~~~~~~~~~~~~~-2~~~~~~~~~~~~o||
C||-----------------3~~~~~~~~~~~~~-5~~~~~~~~~~~~~-2~~~~~~~~~~~~-||
Padge
D||-------------------------------------------------------------||
A||o-----------------------------------------------------------o||
F||------9---9/10-----9---9/10-------9----9-10-12-10-9-10-9-----||
C||--7-7---7------------------------------------------------12--||
G||o--------------8-8---8------10-10---10----------------------o||
C||-------------------------------------------------------------||

Matt
D||-------------------------------------------------------------------||-------------|
A||o-----------------------------------------------------------------o||-------------|
F||--2~~~~~~~~~~~~~~--------------------------------------------------||-------------|
C||--2~~~~~~~~~~~~~~-3~~~~~~~~~~~~~~~-5~~~~~~~~~~~~~~-2~~~~~~~~~~~~~~-||-------------|
G||o-0~~~~~~~~~~~~~~-3~~~~~~~~~~~~~~~-5~~~~~~~~~~~~~~-2~~~~~~~~~~~~~~o||-x\\\\\\\\\\-|
C||------------------3~~~~~~~~~~~~~~~-5~~~~~~~~~~~~~~-2~~~~~~~~~~~~~~-||-x\\\\\\\\\\-|
Padge
D||-------------------------------------------------------------------||-------------|
A||o-----------------------------------------------------------------o||-------------|
F||------9---9/10-----9---9/10-------9----9-10-12-10h12p10-9-10-9-----||-------------|
C||--7-7---7------------------------------------------------------12--||-------------|
G||o--------------8-8---8------10-10---10----------------------------o||-x\\\\\\\\\\-|
C||-------------------------------------------------------------------||-x\\\\\\\\\\-|
Gtr 3
D||-------------------------------------------------------------------||
A||o-----8---8/10-----8---8/10-------8----8-10-----------------------o||
F||--5-5---5-----------------------------------9---7h9p7---5-4--5-----||
C||---------------7-7---7------9--9----9---------------------------7--||
G||o-----------------------------------------------------------------o||
C||-------------------------------------------------------------------||


-Chorus-
Matt & Padge
D|--------1~~~~~~~~~~~~~~~~~~~~~--------1~~~~~~~~~~~~~~~~~~~~~|
A|--------1~~~~~~~~~~~~~~~~~~~~~--------1~~~~~~~~~~~~~~~~~~~~~|
F|--------x-----------------------------x---------------------|
C|------3-3~~~~~~~~~~~~~~~~~~~~~------3-3~~~~~~~~~~~~~~~~~~~~~|
G|-3333-3-3~~~~~~~~~~~~~~~~~~~~~-3333-3-3~~~~~~~~~~~~~~~~~~~~~|
C|-3333-3-3~~~~~~~~~~~~~~~~~~~~~-3333-3-3~~~~~~~~~~~~~~~~~~~~~|
   ----                          ----
"HAS NO ONE TOLD YOU!!! Your Cries are all In Vain...

Matt
D|--------0~~~~~~~~~~~~~~~~~~~~~~~--------0~~~~~~~~~~~~~~~~~~~~~~~-|
A|--------0~~~~~~~~~~~~~~~~~~~~~~~--------0~~~~~~~~~~~~~~~~~~~~~~~-|
F|------2-2~~~~~~~~~~~~~~~~~~~~~~~------2-2~~~~~~~~~~~~~~~~~~~~~~~-|
C|-2222-2-2~~~~~~~~~~~~~~~~~~~~~~~-2222-2-2~~~~~~~~~~~~~~~~~~~~~~~-|
G|-0000-0-0~~~~~~~~~~~~~~~~~~~~~~~-0000-0-0~~~~~~~~~~~~~~~~~~~~~~~-|
C|-----------------------------------------------------------------|
   ----                            ----
Padge
D|-----------------------------------------------------------------|
A|-----------------------------------------------------------------|
F|-5-----4---4-----5-----4---4-----5-----4---4-----5-----4---4-----|
C|---5-5---5---3-5---5-5---5---3-5---5-5---5---3-5---5-5---5---3-5-|
G|-----------------------------------------------------------------|
C|-----------------------------------------------------------------|
     - -   -   - -   - -   -   - -   - -   -   - -   - -   -   - -
...And everyone keeps trying to take that all away...

Matt & Padge
D|--------1~~~~~~~~~~~~~~~~~~~~~--------1~~~~~~~~~~~~~~~~~~~~~|
A|--------1~~~~~~~~~~~~~~~~~~~~~--------1~~~~~~~~~~~~~~~~~~~~~|
F|--------x-----------------------------x---------------------|
C|------3-3~~~~~~~~~~~~~~~~~~~~~------3-3~~~~~~~~~~~~~~~~~~~~~|
G|-3333-3-3~~~~~~~~~~~~~~~~~~~~~-3333-3-3~~~~~~~~~~~~~~~~~~~~~|
C|-3333-3-3~~~~~~~~~~~~~~~~~~~~~-3333-3-3~~~~~~~~~~~~~~~~~~~~~|
   ----                          ----
"HAS NO ONE TOLD YOU!!! Your Cries are all In Vain...

Matt
D|--------0~~~~~~~~~~~~~~~~~~~~~~~--------0--------------------|
A|--------0~~~~~~~~~~~~~~~~~~~~~~~--------0--------------------|
F|------2-2~~~~~~~~~~~~~~~~~~~~~~~------2-2------------------2-|
C|-2222-2-2~~~~~~~~~~~~~~~~~~~~~~~-2222-2-2----3-2-0---0-----2-|
G|-0000-0-0~~~~~~~~~~~~~~~~~~~~~~~-0000-0-0----------3---3-2-0-|
C|-------------------------------------------------------------|
   ----                            ----
Padge
D|-------------------------------------------------------------|
A|-------------------------------------------------------------|
F|-5-----4---4-----5-----4---4-----5-----4---4---------------2-|
C|---5-5---5---3-5---5-5---5---3-5---5-5---5---3-2-0---0-----2-|
G|---------------------------------------------------3---3-2-0-|
C|-------------------------------------------------------------|
     - -   -   - -   - -   -   - -   - -   -
...YOUR CRIIIIIEESS!!!"

Padge- Clean w/ delay
D|---------------------------------------------------------------------------|
A|---------------------------------------------------------------------------|
F|---------------------------------------------------------------------------|
C|---10---9-------------10---9------------10---9-------------10---12---9-9-9-|
G|-0----0---0-10-0-12-0----0---0-10-0-7-0----0---0-10-0-12-0----0----0-------|
C|---------------------------------------------------------------------------|
   -    -   -    -    -    -   -    -   -    -   -    -    -    -    -
"Has nobody told you when you look away (look away)

Matt
D||-------------------------------------------------------------||
A||o-----------------------------------------------------------o||
F||-------------------------------------------------------------||
C||--2-2--2-2-2--2-2-2--2-2-2--2-2-2--2-2-2--2------------------||
G||o-0-0--0-0-0--0-0-0--0-0-0--0-0-0--0-0-0--0-3-3-3-3-5-5-5-5-o||
C||--------------------------------------------3-3-3-3-5-5-5-5--||
     - -  - - -  - - -  - - -  - - -  - - -  - - - - - - - - -
Padge
D||-----------------------------------------------------------------------------||
A||o---------------------------------------------------------------------------o||
F||-----------------------------------------------------------------------------||
C||----10---9-------------10---9------------10---9-------------10---12---9-9-9--||
G||o-0----0---0-10-0-12-0----0---0-10-0-7-0----0---0-10-0-12-0----0----0-------o||
C||-----------------------------------------------------------------------------||
     -    -   -    -    -    -   -    -   -    -   -    -    -    -    -
...The stories they told you still run through your vains...


Matt & Padge
D||-------------------------------------------------------------||
A||o-----------------------------------------------------------o||
F||-------------------------------------------------------------||
C||--2-2--2-2-2--2-2-2--2-2-2--2-2-2--2-2-2--2------------------||
G||o-0-0--0-0-0--0-0-0--0-0-0--0-0-0--0-0-0--0-3-3-3-3-5-5-5-5-o||
C||--------------------------------------------3-3-3-3-5-5-5-5--||
     - -  - - -  - - -  - - -  - - -  - - -  - - - - - - - - -
-...Has nobody told you when you look away (look away)
-...The stories they told you still...


D|-------------------------------------------------------------------------------|
A|--------[5][5][5][5][5][5]--------[5][5][5][5][5][5]--------[5][5][5][5][5][5]-|
F|-2-2--2--------------------2-2--2--------------------2-2--2--------------------|
C|-2-2--2--------------------2-2--2--------------------2-2--2--------------------|
G|-0-0--0--------------------0-0--0--------------------0-0--0--------------------|
C|-------------------------------------------------------------------------------|
...RUN THROUGH YOUR VEEEEINS!!!"

D|-----------------|
A|-----------------|
F|-----------------|
C|-3-3-3-3-3-3-3-3-|
G|-3-3-3-3-3-3-3-3-|
C|-3-3-3-3-3-3-3-3-|

Matt
D|-------------------------------------------------------------------------------|
A|-------------------------------------------------------------------------------|
F|-2-2--2-[5][5][5][5][5][5]-2-2--2-[5][5][5][5][5][5]-2-2--2-[5][5][5][5][5][5]-|
C|-2-2--2--------------------2-2--2--------------------2-2--2--------------------|
G|-0-0--0--------------------0-0--0--------------------0-0--0--------------------|
C|-------------------------------------------------------------------------------|
Padge
D|-------------------------------------------------------------------------------|
A|--------[5][5][5][5][5][5]--------[5][5][5][5][5][5]--------[5][5][5][5][5][5]-|
F|-2-2--2--------------------2-2--2--------------------2-2--2--------------------|
C|-2-2--2--------------------2-2--2--------------------2-2--2--------------------|
G|-0-0--0--------------------0-0--0--------------------0-0--0--------------------|
C|-------------------------------------------------------------------------------|

D|-------------------|
A|-------------------|
F|-----------------2-|
C|-3-3-3-3-3-3-3-3-2-|
G|-3-3-3-3-3-3-3-3-0-|
C|-3-3-3-3-3-3-3-3---|
   - - - - - - - -

            
            
Suggest correction
Creating personal tab
Creating personal tab
You can edit any tab online and save it as your Personal.

You can edit, replace or remove any tab part or add personal notes – all changes will be seen only by you.

Personal tabs can be accessed anytime from any device, even offline.
Learn more »
comments
print report bad tab
1 comment total.
+2 reply
BlackTy 10 Oct 12, 2010 08:20 AM

Nice tab...never fails i look for ur tabs for bullet always so good

guest
You may want to rate the tab now too:
select rating
Wanna post a correction for this tab? Suggest correction