Oops, an error
Loading. Please wait.
We have an official Deliver Us From Evil tab made by UG professional guitarists. Check out the tab »
×
14,360 views 1 this week
3 commentsread comments
1 2 3 4 5
x 6
add to favorites
×
Save as Personal and add changes to this tab that will be seen only by you. Learn more ›
×
You can save this tab as Personal to edit and correct it or add notes. All changes will be seen only by you. Learn more »
launch autoscroll
font size
0
reset
guitar tuner
backing track
0:00
0:00
edit
Autoscroll
slow
fast
+/-
esc
set tempo
stop
Author
well... here it goes and yes the tuning is fa ked up like the other one i tabbed because 
lazy! ^^

but i think you dont have much problems with it...
...because the lower string is in C!


     (First 20 sec NO BASS =S)
=Intro=
G------------------------------------------------|
D------------------------------------------------|
A------------------------------------------------|
C-14/3-3333-5555-10101010-9999-5555-3333-5555-7~-|

     (Then NO BASS 'till 1:08 =S)
=Couplet=
G-------------------------------------------|
D-------------------------------------------|
A-------------------------------------------|
C-7777-9-10--3333-9-10--5555-9-10--2222-2-5-|

G------------------------------------------------|
D------------------------------------------------|
A------------------------------------------------|
C-7777-9-10--3333-9-10--5555-9-10--2222-10-9-7-2-|

=Chorus=
G-------------------------------------------|
D-------------------------------------------|
A-------------------------------------------|
C-3333-5555-7777-99-1010--3333-5555-2222222-|

G-----------------------------------------------------|
D-----------------------------------------------------|
A-----------------------------------------------------|
C-3-3--5-5--7777-99-1010--3-3--5-5--7777-101010101010-|

=Riff=
G----------------------------------------|
D----------------------------------------|
A----------------------------------------|
C-3333-5555-10101010-9999-5555-3333-5555-|

=Couplet=
G-------------------------------------------|
D-------------------------------------------|
A-------------------------------------------|
C-7777-9-10--3333-9-10--5555-9-10--2222-3-5-|

G------------------------------------------------|
D------------------------------------------------|
A------------------------------------------------|
C-7777-9-10--3333-9-10--5555-9-10--2222-10-9-7-2-|

=Chorus=
G-------------------------------------------|
D-------------------------------------------|
A-------------------------------------------|
C-3333-5555-7777-99-1010--3333-5555-2222222-|

G-----------------------------------------------------|
D-----------------------------------------------------|
A-----------------------------------------------------|
C-3-3--5-5--7777-99-1010--3-3--5-5--7777-101010101010-|

=Riff=
G------------------------------------------|
D------------------------------------------| (3333...5555) play 2 times
A------------------------------------------|
C-(3333-5555-10101010-9999-5555)-3333-5555-|

=Bridge=
G--------------------------|
D--------------------------|
A-------------------8-10/6-|
C-77-5-77-33-3h5-22--------|

G-------------------------------------------|
D-------------------------------------------|
A--------------8-10/6----------------8-10/6-|
C-77-7--5-77-7--------33-3--3h5-22-2--------|

G-----------------------------|
D-----------------------------|
A-----------------------------|
C-77~-7~-77~-7~-33~-3~-22~-2~-|

G------------------------------------------|
D------------------------------------------|  2x
A------------------------------------------|
C-7777-7~-7777-7~-3333-3~-2222-2--10-9-7-2-|

=Chorus=
G-------------------------------------------|
D-------------------------------------------|
A-------------------------------------------|
C-3333-5555-7777-99-1010--3333-5555-2222222-|

G-----------------------------------------------------|
D-----------------------------------------------------|
A-----------------------------------------------------|
C-3-3--5-5--7777-99-1010--3-3--5-5--7777-101010101010-|

=Riff=
G--------------------|
D--------------------|
A--------------------|
C-3~-5~-10~--10-9-5~-|

G------------------------------|
D------------------------------| ('till the end)
A------------------------------|
C-3333-5555-10101010-9999-5555-|

PLz Rate I'll HOpe U liked IT!

I've update it. I changed the =Riff= instead of 2222 i did 5555.

            
            
Suggest correction
Creating personal tab
Creating personal tab
You can edit any tab online and save it as your Personal.

You can edit, replace or remove any tab part or add personal notes – all changes will be seen only by you.

Personal tabs can be accessed anytime from any device, even offline.
Learn more »
comments
print report bad tab
3 comments total.
0 reply
Grim Chance 10 Feb 21, 2008 03:07 PM

the song is in drop c right? i know you said you got lazy but im just checking

0 reply
Br3TT 123 Mar 04, 2008 10:39 AM

this song isnt in drop c its in standard D.. but its easier to play in drop c like i did in my guitar tab for this song...
i played this on my bass with the song.. its all good except theres somthing wrong with the first part...
4*'s

0 reply
odysseas_bass 10 Jul 01, 2010 10:10 AM

fine all in all but in the =intro= and =riff= it isn't e.g 3333-5555 but 33333333-55555555

guest
You may want to rate the tab now too:
select rating
Wanna post a correction for this tab? Suggest correction