Oops, an error
Loading. Please wait.
We have an official Dignity tab made by UG professional guitarists. Check out the tab »
×
3,484 views 6 this week
1 commentread comment
1 2 3 4 5
x 3
add to favorites
×
Save as Personal and add changes to this tab that will be seen only by you. Learn more ›
×
You can save this tab as Personal to edit and correct it or add notes. All changes will be seen only by you. Learn more »
launch autoscroll
font size
0
reset
guitar tuner
edit
Autoscroll
slow
fast
+/-
esc
set tempo
stop
Pretty easy song its fun to play though I may have messed up in a couple spots but 
major on a comment I got I noticed that there is a spot in the bridge that is a little 
so I will change it as soon as I get the chance

Intro:
F-------------------------------------------|
C-------------------------------------------|
G-00----00-----0-0-0-0-0-0-0-0-0-0-0-0------|
C--------------------------------------3--5-|

F------------------------------------------|
C------------------------------------------|
G-000000000000------000000000000-8--10--00-|
C--------------3--5------------------------|

Verse: (2X)
F--------------------------------------------------------------------|
C--------------------------------------------------------------33----|
G-00000000000-5-3-000000000000-2-3--------------------------------33-|
C----------------------------------3--3-3-3-3-3-3-333-5-555555-------|

Chorus:
F-------------------------------------------------------------------|
C-------------------------------------------------------------------|
G---------------------------------000-000-000-000-------------------|
C-333-333-333-333-333-333-333-333-----------------555-555-00-0-00-0-|

F------------------------------------------------------------------|
C------------------------------------------------------------------|
G------------------------------------------------------------------|
C-333-333-333-333-333-333-333-333-555-555-555-555-00-0-00-0-000000-|

F------------------------------------------|
C------------------------------------------|
G-000000000000------000000000000-8--10--00-|
C--------------3--5------------------------|

Verse 2: (the 1s are 11s)
F----------------------------------------------------|
C---------------10-12--------------------------------|
G-/12-----12----------8----101010101010-111111111111-|
C----------------------------------------------------|

F--------------------------------------------------------------------|
C--------------------------------------------------------------33----|
G-00000000000-5-3-000000000000-2-3--------------------------------33-|
C----------------------------------3--3-3-3-3-3-3-333-5-555555-------|

Chorus 2:
F-------------------------------------------------------------------|
C-------------------------------------------------------------------|
G---------------------------------000-000-000-000-------------------|
C-333-333-333-333-333-333-333-333-----------------555-555-00-0-00-0-|

F------------------------------------------------------------------|
C------------------------------------------------------------------|
G------------------------------------------------------------------|
C-333-333-333-333-333-333-333-333-555-555-555-555-00-0-00-0-000000-|

Bridge:
F-----------------------------------------|
C---------------7-10-9-------------7-10-9-|
G-0-0-----0-0----------0-0-----0-0--------|
C-----------------------------------------|

F-----------------------------------------------------------------|
C--------------------------7-10-9--------------------------7-10-9-|
G-000000000000000000000000--------000000000000000000000000--------|
C-----------------------------------------------------------------|

Solo:
F----------------------------------------------------|
C----------------------------------------------------|
G-000000000000000000000000---------------------------|
C--------------------------333333333333-555555555555-|

F----------------------------------------------------|
C----------------------------------------------------|
G-000000000000000000000000---------------------------|
C--------------------------333333333333-555555555555-|

F-----------------------------------------------------|
C-----------------------------------------------------|
G-000000000000000000000000----------------------------|
C--------------------------333333333333-555555-777777-|

F---------------------|
C---------------------|
G-0-------------------|
C---------3----5----2-|

Chorus 3:
F-------------------------------------------------------------------|
C-------------------------------------------------------------------|
G---------------------------------000-000-000-000-------------------|
C-333-333-333-333-333-333-333-333-----------------555-555-00-0-00-0-|

F------------------------------------------------------------------|
C------------------------------------------------------------------|
G------------------------------------------------------------------|
C-333-333-333-333-333-333-333-333-555-555-555-555-00-0-00-0-000000-|

F------------------------------------------------------------------|
C-33333333333333---------------------------------------------------|
G--------------------------------000-000-000-000-------------------|
C----------------333-333-333-333-----------------555-555-00-0-00-0-|

F------------------------------------------------------------------|
C------------------------------------------------------------------|
G------------------------------------------------------------------|
C-333-333-333-333-333-333-333-333-555-555-555-555-00-0-00-0-000000-|

Outro:
F------------------------------------------|
C------------------------------------------|
G-000000000000------000000000000-8--10--00-|
C--------------3--5------------------------|

            
            
Suggest correction
Creating personal tab
Creating personal tab
You can edit any tab online and save it as your Personal.

You can edit, replace or remove any tab part or add personal notes – all changes will be seen only by you.

Personal tabs can be accessed anytime from any device, even offline.
Learn more »
Give kudos to tab author, rate the tab!
1 2 3 4 5
comments
print report bad tab
1 comment total.
0 reply
durdur123 10 Jul 02, 2010 08:14 AM

i noticed that in the bridge for the first time it goes -7-10-9- it sounds like it is on a lower string also for the last part of it

guest
You may want to rate the tab now too:
select rating
Wanna post a correction for this tab? Suggest correction