Oops, an error
Loading. Please wait.
We have an official Disappear tab made by UG professional guitarists. Check out the tab »
×
5,632 views 1 this week
2 commentsread comments
1 2 3 4 5
3 more votes to show rating
add to favorites
×
Save as Personal and add changes to this tab that will be seen only by you. Learn more ›
×
You can save this tab as Personal to edit and correct it or add notes. All changes will be seen only by you. Learn more »
launch autoscroll
font size
0
reset
how to read this tab
guitar tuner
edit
Autoscroll
slow
fast
+/-
esc
set tempo
stop
-------------------------------------------------------------------------------
                             Disappear - Bullet For My Valentine
-------------------------------------------------------------------------------
Tabbed by: Nirvan4eva

Tuning: Standard D tuning...D-G-C-F-A-d


Hey this is my first tab...

d|------------------------------------------------------------------------------|
A|------------------------------------------------------------------------------|
F|------------------------------------------------------------------------------|
C|----------------------------------------------------------7--5---------7------|
G|--2---5---5-4---4---4-5----2---2----5---5-4---4---4-5----5--3----5----5-------| X2
D|--0---3---3-2---2---2-3----0---0----3---3-2---2---2-3------------3------------|

d|--------------------------------------------------------------------------------|
A|--------------------------------------------------------------------------------|
F|--------------------------------------------------------------------------------|
C|---------12-----7-----5-----------------12-----7----5---------------------------|
G|---2-----10-----5-----3-----3-3---2-----10-----5----3---------------------------|
D|---0------------------------1-1---0---------------------------------------------|

            
            
Suggest correction
Creating personal tab
Creating personal tab
You can edit any tab online and save it as your Personal.

You can edit, replace or remove any tab part or add personal notes – all changes will be seen only by you.

Personal tabs can be accessed anytime from any device, even offline.
Learn more »
Give kudos to tab author, rate the tab!
1 2 3 4 5
comments
print report bad tab
2 comments total.
0 reply
Ghost Stalker 12 Feb 29, 2008 01:12 PM

Only 4 songs off the new album were recorded in drop C (Hearts Burst Into Fire, Waking The Demon, Deliver Us From Evil [not entirely sure about this one] and Forever and Always) , all the rest are in standard D

0 reply
Nirvana4eva 16 Mar 01, 2008 08:54 AM

thanks - will change

guest
You may want to rate the tab now too:
select rating
Wanna post a correction for this tab? Suggest correction