Oops, an error
Loading. Please wait.
We have an official Disappear tab made by UG professional guitarists. Check out the tab »
×
28,046 views 9 this week
2 commentsread comments
1 2 3 4 5
x 6
add to favorites
×
Save as Personal and add changes to this tab that will be seen only by you. Learn more ›
×
You can save this tab as Personal to edit and correct it or add notes. All changes will be seen only by you. Learn more »
launch autoscroll
font size
0
reset
how to read this tab
guitar tuner
edit
Autoscroll
slow
fast
+/-
esc
set tempo
stop
-------------------------------------------------------------------------------
                             Disappear - Bullet For My Valentine
-------------------------------------------------------------------------------
Tabbed by:Joe Polen
Email:

Tuning:DGCFAD (down 1 step)

D|---------------------------------------------------------------------------|
A|---------------------------------------------------------------------------|
F|----9-9-8--8-8-9-------9-9-8--8-8-9-------5--------------------------------|
C|-2----------------2-2----------------2-5--5-7------------------------------|
G|-2--7-7-6--6-6-7--2-2--7-7-6--6-6-7--2-5--3-7------------------------------|x2
D|-0----------------0-0----------------0-3----5------------------------------|

Verse

D|---------------------------------------------------------------------------|
A|---------------------------------------------------------------------------|
F|-----9-x-7-x-5------9-x-7-x-5----12b14r12--14p12p11------------------------|
C|-2-x-9-x-7-x-5--2-x-9-x-7-x-5----------------------------------------------|
G|-2-x-7-x-5-x-3--2-x-7-x-5-x-3----------------------------------------------|x3
D|-0-x------------0-x--------------------------------------------------------|

Prechorus

D|---------------------------------------------------------------------------|
A|---------------------------------------------------------------------------|
F|-----------------------------------------------5555------------------------|
C|-4--2-9-9-8--8-8-9--7--4----------------4/5-55-5555-7777-------------------|
G|-4--2-7-7-6--6-6-7--5--4---(Pickslide)--4/5-55-3333-7777-------------------|
D|-2--0------------------2----------------2/3-33------5555-------------------|


Chorus

Guitar 1
D|---------------------------------------------------------------------------|
A|---------------------------------------------------------------------------|
F|---------------------------------------5----------------5-7----------------|
C|-2--9-9-8--8-8-9--2-2--9-9-8--8-8-9--2-5--9-9-8--8-8-9--5-7--9-9-8--8-8-9--|
G|-2--7-7-6--6-6-7--2-2--7-7-6--6-6-7--2-3--7-7-6--6-6-7--3-5--7-7-6--6-6-7--|
D|-0----------------0-0----------------0-------------------------------------|

Guitar 2
e|---------------------------------------------------------------------------|
B|---------------------------------------------------------------------------|
G|---------------------------------------5~---------------5-7~---------------|
D|-------------------------------------2-5~---------------5-7~---------------|
G|-------------------------------------2-3~---------------3-5~---------------|
E|-------------------------------------0-------------------------------------|

Verse

D|---------------------------------------------------------------------------|
A|---------------------------------------------------------------------------|
F|-----9-x-7-x-5------9-x-7-x-5----12b14r12--14p12p11------------------------|
C|-2-x-9-x-7-x-5--2-x-9-x-7-x-5----------------------------------------------|
G|-2-x-7-x-5-x-3--2-x-7-x-5-x-3----------------------------------------------|x3
D|-0-x------------0-x--------------------------------------------------------|

Prechorus

D|---------------------------------------------------------------------------|
A|---------------------------------------------------------------------------|
F|-----------------------------------------------5555------------------------|
C|-4--2-9-9-8--8-8-9--7--4----------------4/5-55-5555-7777-------------------|
G|-4--2-7-7-6--6-6-7--5--4---(Pickslide)--4/5-55-3333-7777-------------------|
D|-2--0------------------2----------------2/3-33------5555-------------------|


Chorus

Guitar 1
D|---------------------------------------------------------------------------|
A|---------------------------------------------------------------------------|
F|---------------------------------------5----------------5-7----------------|
C|-2--9-9-8--8-8-9--2-2--9-9-8--8-8-9--2-5--9-9-8--8-8-9--5-7--9-9-8--8-8-9--|
G|-2--7-7-6--6-6-7--2-2--7-7-6--6-6-7--2-3--7-7-6--6-6-7--3-5--7-7-6--6-6-7--|
D|-0----------------0-0----------------0-------------------------------------|

Guitar 2
D|---------------------------------------------------------------------------|
A|---------------------------------------------------------------------------|
F|---------------------------------------5~---------------5-7~---------------|
C|-------------------------------------2-5~---------------5-7~---------------|
G|-------------------------------------2-3~---------------3-5~---------------|
D|-------------------------------------0-------------------------------------|


Bridge

D|---------------------------------------------------------------------------|
A|---------------------------------------------------------------------------|
F|-5--------------------7----------------------------------------------------|
C|-5-5p3-5p3---5p3-5p3--7-7p5-7p5---7p5-7p5----------------------------------|
G|-3--------------------5----------------------------------------------------|
D|---------------------------------------------------------------------------|


(solo)not sure


D|---------------------------------------------------------------------------|
A|---------------------------------------------------------------------------|
F|---------9-7-5-5555-5-7----------------------------------------------------|
C|-2-2222--9-7-5-5555-5-7----------------------------------------------------|
G|-2-2222--7-5-3-3333-3-5----------------------------------------------------|x5
D|-0-0000--------------------------------------------------------------------|
     -PM-        -PM-


Prechorus

D|---------------------------------------------------------------------------|
A|---------------------------------------------------------------------------|
F|-----------------------------------------------5555------------------------|
C|-4--2-9-9-8--8-8-9--7--4----------------4/5-55-5555-7777-------------------|
A|-4--2-7-7-6--6-6-7--5--4---(Pickslide)--4/5-55-3333-7777-------------------|
D|-2--0------------------2----------------2/3-33------5555-------------------|

Chorus


Guitar 1
D|---------------------------------------------------------------------------|
A|---------------------------------------------------------------------------|
F|---------------------------------------5----------------5-7----------------|
C|-2--9-9-8--8-8-9--2-2--9-9-8--8-8-9--2-5--9-9-8--8-8-9--5-7--9-9-8--8-8-9--|
G|-2--7-7-6--6-6-7--2-2--7-7-6--6-6-7--2-3--7-7-6--6-6-7--3-5--7-7-6--6-6-7--|
D|-0----------------0-0----------------0-------------------------------------|

Guitar 2
D|---------------------------------------------------------------------------|
A|---------------------------------------------------------------------------|
F|---------------------------------------5~---------------5-7~---------------|
C|-------------------------------------2-5~---------------5-7~---------------|
G|-------------------------------------2-3~---------------3-5~---------------|
D|-------------------------------------0-------------------------------------|

Outro
D|---------------------------------------------------------------------------------|
A|---------------------------------------------------------------------------------|
F|-----------------------------------------10-10-9--9-9-10-------10-10-9--9-9-7---5|
C|-2--9-9-8--8-8-9--2-2--9-9-8--8-8-9--2-2------------------2-2-----------------5-5|
G|-2--7-7-6--6-6-7--2-2--7-7-6--6-6-7--2-2--8--8-7--7-7--8--2-2---8--8-7--7-7-5-5-3|
D|-0----------------0-0----------------0-0------------------0-0-----------------3--|




| /  slide up
| \  slide down
| h  hammer-on
| p  pull-off
| ~  vibrato
| +  harmonic
| x  Mute note
===============================================================================

            
            
Suggest correction
Creating personal tab
Creating personal tab
You can edit any tab online and save it as your Personal.

You can edit, replace or remove any tab part or add personal notes – all changes will be seen only by you.

Personal tabs can be accessed anytime from any device, even offline.
Learn more »
comments
print report bad tab
2 comments total.
+2 reply
bulletrocks522 351 Mar 05, 2008 11:12 AM

Im sorry, but this isnt a very good tab. Thanks for trying and contributing though!! :)

+1 reply
Charlieinnorway 10 Mar 08, 2008 04:48 AM

Try again ^^,

guest
Wanna post a correction for this tab? Suggest correction