Oops, an error
Loading. Please wait.

End Of Days intro tab

version 1
version 1

Intro

Whole song

Interactive

8,316 views 1 this week
6 commentsread comments
1 2 3 4 5
1 last vote to show rating
add to favorites
×
Save as Personal and add changes to this tab that will be seen only by you. Learn more ›
×
You can save this tab as Personal to edit and correct it or add notes. All changes will be seen only by you. Learn more »
launch autoscroll
font size
0
reset
how to read this tab
guitar tuner
backing track
0:00
0:00
edit
Autoscroll
slow
fast
+/-
esc
set tempo
stop
-------------------------------------------------------------------------------
                             END OF DAYS - Bullet For My Valentine
-------------------------------------------------------------------------------
Tabbed by:Dylan Fontaine
Email:harvester.of.sorrow@live.ca

Tuning: Drop C (CGFCad)


Guitar 1: Matt Tuck
Guitar 2: Padge

INTRO

   Guitar1
D-|-------------------------------------------------------------------|
A-|-------------------------------------------------------------------|
F-|-------------------------------------------------------------------|
C-|--0-0------0----8----7-----------------0-----8----7----------------|
G-|--0-0-0000-0--0---00---00-8-00-7-0-8---0---0---00---00-8-00-5-0-7--|
C-|--0-0-0000-0--0---00---00---00---0-----0---0---00---00---00---0----|
PM|  --------    -   --   --   --   -         -   --   --   --   -    
  |
  |Guitar2
D-|------------------------------------------------------------------|
A-|------------------------------------------------------------------|
F-|----------------7----5----------------------7----5----------------|
C-|--0-0------0--------------7----5---7--0---------------7----3---5--|
G-|--0-0-0000-0--0---00---00---00---0----0---0---00---00---00---0----|
C-|--0-0-0000-0--0---00---00---00---0----0---0---00---00---00---0----|
PM|  --------    -   --   --   --   -        -   --   --   --   -



D-|-------------------------------------------------------------------|
A-|-------------------------------------------------------------------|
F-|-------------------------------------7---------------7-------------|
C-|-0----8----7----------------8-8-10-8---10-8-7-7-10-7---10-7--------|
G-|-0--0---00---00-8-00-7-0-8--8---------------7----------------------|
C-|-0--0---00---00---00---0----8---------------7----------------------|
PM|    -   --   --   --   -      ------          ------
  |
  |
D-|------------------------------------------------------------------|
A-|------------------------------------------------------------------|
F-|------7----5------------------7-9-7-10-9-7-------9----10-9--------|
C-|-0--------------7----5---7--8---------------7-10---10------10-----|
G-|-0--0---00---00---00---0----8---------------7---------------------|
C-|-0--0---00---00---00---0----8---------------7---------------------|
PM|    -   --   --   --   -      -----           -------



D-|-------------------------------------------------------------------|
A-|-------------------------------------------------------------------|
F-|-------------------------------------------------------------------|
C-|--0----8----7-----------------0-----8----7-------------------------|
G-|--0--0---00---00-8-00-7-0-8---0---0---00---00-8-00-5-0-7-0---------|
C-|--0--0---00---00---00---0-----0---0---00---00---00---0---0---------|
PM|     -   --   --   --   -         -   --   --   --   -   -
  |
  |
D-|------------------------------------------------------------------|
A-|------------------------------------------------------------------|
F-|-------7----5----------------------7----5-------------------------|
C-|--0--------------7----5---7--0---------------7----3---5-----------|
G-|--0--0---00---00---00---0----0---0---00---00---00---0-------------|
C-|--0--0---00---00---00---0----0---0---00---00---00---0-------------|
PM|     -   --   --   --   -        -   --   --   --   -



D-|------------------------------------------------------------------|
A-|------------------------------------------------------------------|
F-|-------------------------------------7---------------7------------|
C-|-0----8----7----------------8-8-10-8---10-8-7-7-10-7---10-7-------|
G-|-0--0---00---00-8-00-7-0-8--8---------------7---------------------|
C-|-0--0---00---00---00---0----8---------------7---------------------|
PM|    -   --   --   --   -      ------          ------
  |
  |
D-|------------------------------------------------------------------|
A-|------------------------------------------------------------------|
F-|------7----5------------------7-9-7-10-9-7-------9----10-9--------|
C-|-0--------------7----5---7--8---------------7-10---10------10-----|
G-|-0--0---00---00---00---0----8---------------7---------------------|
C-|-0--0---00---00---00---0----8---------------7---------------------|
PM|    -   --   --   --   -      -----           -------



PRE-VERSE

D-|------------------------------------------------------------------|
A-|------------------------------------------------------------------|
F-|-------------------------5--7-------------------------------------|
C-|---------------3h5p3\1---5--7-------------------------------------|
G-|-------------0-----------3--5-------------------------------------|
C-|-------------0----------------------------------------------------|
PM|             -
  |
  |
D-|------------------------------------------------------------------|
A-|------------------------------------------------------------------|
F-|-------------------------5--7-------------------------------------|
C-|-0--5h7p5\3--------------5--7-------------------------------------|
G-|-0----------0------------3--5-------------------------------------|
C-|-0----------0-----------------------------------------------------|
PM|            -

Bear with me this is my first tab. I'm working on this rest of the song. Email me
any corrections!

            
            
Suggest correction
Creating personal tab
Creating personal tab
You can edit any tab online and save it as your Personal.

You can edit, replace or remove any tab part or add personal notes – all changes will be seen only by you.

Personal tabs can be accessed anytime from any device, even offline.
Learn more »
Give kudos to tab author, rate the tab!
1 2 3 4 5
comments
print report bad tab
6 comments total. Showing first comments.
0 reply
Ghost Stalker 12 Apr 19, 2008 11:51 AM

pretty damn good, even if it is only the beginning looking forward to the rest of it

0 reply
Br3TT 123 Apr 22, 2008 11:27 AM

i wouldnt say good but its close yeah try to get the rest of it

0 reply
Ghost Stalker 12 Apr 22, 2008 12:00 PM

its more than close, its spot on...ive played along with the song, using these tabs and it matched perfectly, both guitar parts

guest
Wanna post a correction for this tab? Suggest correction