Oops, an error
Loading. Please wait.
We have an official Eye Of The Storm tab made by UG professional guitarists. Check out the tab »
×
6,769 views 3 this week
4 commentsread comments
1 2 3 4 5
x 5
add to favorites
×
Save as Personal and add changes to this tab that will be seen only by you. Learn more ›
×
You can save this tab as Personal to edit and correct it or add notes. All changes will be seen only by you. Learn more »
launch autoscroll
font size
0
reset
guitar tuner
edit
Autoscroll
slow
fast
+/-
esc
set tempo
stop
Eye Of The Storm, there was no bass tab so here it goes...

=Intro=
F-------------|
C-------------|  2x
G--------1111-|
C-22--22------|

=Couplet=
F----------------------|
C----------------------|  4x
G-----------------1111-|
C-222222222222222------|

=Pre-Chorus=
F------------------------------------------------------------------|
C------------------------------------------------------------------|
G----------------------------------------------------------3-2-3-5-|
C-2222-22-2222-22-2222-22-2222-2222-2222-22-2222-22-2222-22--------|

=Chorus=
F--------------------------------------|  2x
C--------------555---------------------|
G-77777777-333-----77777777--7-5-3-2-0-|
C--------------------------------------| 

=Couplet=
F----------------------|
C----------------------|  4x
G-----------------1111-|
C-222222222222222------|

=Pre-Chorus=
F------------------------------------------------------------------|
C------------------------------------------------------------------|
G----------------------------------------------------------3-2-3-5-|
C-2222-22-2222-22-2222-22-2222-2222-2222-22-2222-22-2222-22--------|

=Chorus=
F--------------------------------------|  2x
C--------------555---------------------|
G-77777777-333-----77777777--7-5-3-2-0-|
C--------------------------------------|

=Bridge= 
F---------------|
C---------------|
G---------------|
C-2~~~-----2~~~-|

F--------------------------------------|
C--------------------------------------|
G---------------33333333-000000-222222-|
C-2222222222222------------------------|

F--------------------------|
C--------------------------|
G---------------9-10-12-14-|
C-2222222222222------------|

F-----------------------------------------|
C-----------------------------------------|  x2 C-------------5- can also be 
G-----------------------3333-33-0000-2222-|     G-7-77777-5h7h-- played.
C-2-22-222-222-0h2h5(x2)------------------|     instead of: C-2-22-222..0h2h5

F----------------------------------------------------------------|
C----------------------------------------------------------------|
G-333333-555555-222222-0-2-333333---33333-555555-22222-0-2-3~-5~-|
C----------------------------------------------------------------|

=Couplet=
F----------------------|
C----------------------|  4x
G-----------------1111-|
C-222222222222222------|

=Pre-Chorus=
F------------------------------------------------------------------|
C------------------------------------------------------------------|
G----------------------------------------------------------3-2-3-5-|
C-2222-22-2222-22-2222-22-2222-2222-2222-22-2222-22-2222-22--------|

=Chorus=
F--------------------------------------|  2x
C--------------555---------------------|
G-77777777-333-----77777777--7-5-3-2-0-|
C--------------------------------------| 

then...
F---------------------|
C---------------------|
G-3-2-0--------1111---|
C-------5-4-2-------2-|

Plz RAte     Kie
~Enjoy!

            
            
Suggest correction
Creating personal tab
Creating personal tab
You can edit any tab online and save it as your Personal.

You can edit, replace or remove any tab part or add personal notes – all changes will be seen only by you.

Personal tabs can be accessed anytime from any device, even offline.
Learn more »
comments
print report bad tab
4 comments total. Showing first comments.
0 reply
baz249 10 Mar 24, 2008 12:40 PM

Good. It works..

But, you could tune it to full D. That way, you'd play opens and not 2s; which would be easier.

0 reply
~*Kie*~ 263 Mar 25, 2008 12:19 PM

jeah i know but the bassist of bullet plays it in Drop C that's why...

0 reply
~*Kie*~ 263 Apr 01, 2008 12:46 PM

maybe ure right =P maybe it's played in D but that's not hard work for U to change it in Full D

guest
You may want to rate the tab now too:
select rating
Wanna post a correction for this tab? Suggest correction