Oops, an error
Loading. Please wait.
We have an official Eye Of The Storm tab made by UG professional guitarists. Check out the tab »
×
17,892 views 6 this week
5 commentsread comments
1 2 3 4 5
x 5
add to favorites
×
Save as Personal and add changes to this tab that will be seen only by you. Learn more ›
×
You can save this tab as Personal to edit and correct it or add notes. All changes will be seen only by you. Learn more »
launch autoscroll
font size
0
reset
how to read this tab
guitar tuner
edit
Autoscroll
slow
fast
+/-
esc
set tempo
stop
Author
Hey, this is my first tab so please tell me what you think.
The other versions of the song look pretty good so I only did the solo.
The rhythm should be pretty close and you can figure it out by listening to the song.

  Tuning is standard, down a full step to: DGCFAD.
   Enjoy!

  Gtr. 1 sweep picking
 ------|------6-------|--|-------6------|-----|------6-------|--|-------6------------|
D||---19-15---------15--19-15---------15----19-15---------15--17-14----------14------|
A||---------17----17----------17----17------------17----17----------16-----16--------|
F||------------16----------------16------------------16-----------------14-----------|
C||----------------------------------------------------------------------------------|
G||----------------------------------------------------------------------------------|
D||----------------------------------------------------------------------------------|


------|-------6-------|-|-------6-------|----|-------6-------|--|-------6------------|
D||---19-15---------15--19-15----------15----19-15---------15--17-14----------14-----|
A||---------17----17----------17----17-------------17----17----------16----16--------|
F||------------16----------------16-------------------16----------------14-----------|
C||----------------------------------------------------------------------------------|
G||----------------------------------------------------------------------------------|
D||----------------------------------------------------------------------------------|


------|-------6------|--|------6-------|------|-------6-------|---|------6------------|
D||---15-12---------12--15-12---------12-----15-12----------12--15-12---------12------|
A||---------13----13----------13----13-------------13----13-----------13----13--------|
F||------------12----------------12-------------------12-----------------12-----------|
C||-----------------------------------------------------------------------------------|
G||-----------------------------------------------------------------------------------|
D||-----------------------------------------------------------------------------------|


------|------6------|----|------6------|------|------6-------|---|------6--------------|
D||---15-12---------12--15-12---------12-----14-11---------11--14-11---------11--------|
A||---------13----13----------13----13-------------12----12----------12----12----------|
F||------------12----------------12-------------------11----------------11-------------|
C||------------------------------------------------------------------------------------|
G||------------------------------------------------------------------------------------|
D||------------------------------------------------------------------------------------|

    Gtr. 1 (right channel)
-----|-------6-------|----|-------6------|-----|------6-------|-----|------6-----------|
D||--15------------------15-------------------15------------------14-------------------|
A||-----17----------17------17----------17-------17----------17------16----------16----|
F||--------16----16------------16----16-------------16----16------------14----14-------|
C||-----------17------------------17-------------------17------------------16----------|
G||------------------------------------------------------------------------------------|
D||------------------------------------------------------------------------------------|
   |
   |
   |Gtr. 2 (left channel)
   |---|-------6-------|----|-------6-------|----|-------6-------|----|-------6---------|
D||--19-15----------15---19-15----------15----19-15----------15---17-14----------14-----|
A||--------17----17------------17----17-------------17----17------------16----16--------|
F||-----------16------------------16-------------------16------------------14-----------|
C||-------------------------------------------------------------------------------------|
G||-------------------------------------------------------------------------------------|
D||-------------------------------------------------------------------------------------|


-----|-------6-------|----|-------6------|-----|-------6-------|----|-------6----------|
D||--15------------------15-------------------15------------------14-------------------|
A||-----17----------17------17----------17-------17----------17------16----------16----|
F||--------16----16------------16----16-------------16----16------------14----14-------|
C||-----------17------------------17-------------------17------------------16----------|
G||------------------------------------------------------------------------------------|
D||------------------------------------------------------------------------------------|
   |
   |
   |
   |---|-------6-------|----|-------6-------|----|-------6-------|----|-------6---------|
D||--19-15----------15---19-15----------15----19-15----------15---17-14----------14-----|
A||--------17----17------------17----17-------------17----17------------16----16--------|
F||-----------16------------------16-------------------16------------------14-----------|
C||-------------------------------------------------------------------------------------|
G||-------------------------------------------------------------------------------------|
D||-------------------------------------------------------------------------------------|

D||-----------------------------------------------------------------------------|
A||--12------13--15--13------15--17--15------17--19--20-----19--17--------------|
F||---\\------\\--\\--\\-------\\--\\--\\-------\\--\\--\\-----\\---\\---19b21--|
C||-----------------------------------------------------------------------------|
G||-----------------------------------------------------------------------------|
D||-----------------------------------------------------------------------------|
   |
   |
   |
   |
D||-------------------------------------------------------------------------------------|
A||---------------------------------------------15--17------15--------19b21-------------|
F||--12------14--16--14------16--17--16------17--\\--\\------\\-17----------------------|
C||--\\-------\\--\\--\\-------\\--\\--\\------\\-----------------\\--------------------|
G||-------------------------------------------------------------------------------------|
D||-------------------------------------------------------------------------------------|

D||----------15----12-----------------15---12------------------15----12-----------------------------|
A||-12-15-12----15-----------12-15-12----15-----------12-15-12----15----15--------------------------|
F||-------------------14~~~~-------------------12~~~~----------------------------11----------------|
C||------------------------------------------------------------------------14~~~-------9--7-----7--9|
G||-----------------------------------------------------------------------------------------10------|
D||-------------------------------------------------------------------------------------------------|
   |
   |
   |
   |
D||-------------------------------------------------------------------------------------------------|
A||----------15----12-----------------15---12------------------15----12-----------------------------|
F||-12-14-12----14----11~~~~-12-14-12----14-----------12-14-12----14----12-------11-----------------|
C||--------------------------------------------12~~~~-----------------------14~~~-----5--4-----4--5-|
G||-----------------------------------------------------------------------------------------7-------|
D||-------------------------------------------------------------------------------------------------|

D||----------15----12------------------15----12------------------15---12---------------------------|
A||-12-15-12----15------------12-15-12----15------------12-15-12----15---15------------12--13--12~-|
F||--------------------14~~~~--------------------12~~~~----------------------------11--------------|
C||--------------------------------------------------------------------------14~~~-----------------|
G||------------------------------------------------------------------------------------------------|
D||------------------------------------------------------------------------------------------------|
   |
   |
   |
   |
D||------------------------------------------------------------------------------------------------|
A||----------15----12------------------15----12-----------------15----12---------------------------|
F||-12-14-12----14----11~~~~--12-14-12----14-----------12-14-12----14----12-------11---12--14--12~-|
C||---------------------------------------------12~~~~-----------------------14~~------------------|
G||------------------------------------------------------------------------------------------------|
D||------------------------------------------------------------------------------------------------|

         Tab Legend
       ------------
           ~- Vibrato
         \\-Tremolo pick
 12b14- bend 12th fret up to 14th
   |-6-|- groups of six

            
            
Suggest correction
Creating personal tab
Creating personal tab
You can edit any tab online and save it as your Personal.

You can edit, replace or remove any tab part or add personal notes – all changes will be seen only by you.

Personal tabs can be accessed anytime from any device, even offline.
Learn more »
comments
print report bad tab
5 comments total. Showing first comments.
0 reply
Br3TT 123 Apr 14, 2008 11:30 AM

i dont understand the beggining of this plz tell me more about this

+2 reply
motoShredder 15 Apr 14, 2008 01:53 PM

hey, yeah the first part didn't exactly come out like I planned it. Well, the way I play it I start with an upstroke on the 19th fret, do a pull-off to the 15th, then do another upstoke for the 17th then do a downstroke sweep through the 16, 17, and 15 then repeat the process. If you listen to the song you should be able to figure out the rhythm for it but it's just groups of six, which are like to triplets run together. I hope this helps but if you have more questions please ask.

0 reply
JOEYPWNSU 40 Apr 29, 2008 04:53 PM

i think you should've explained maybe that part, because before reading this, i thought you were meant to pick the 6 on the e string. other than that, not a bad tab

guest
You may want to rate the tab now too:
select rating
Wanna post a correction for this tab? Suggest correction