Oops, an error
Loading. Please wait.
We have an official Forever And Always tab made by UG professional guitarists. Check out the tab »
×
45,054 views 6 this week
11 commentsread comments
1 2 3 4 5
x 9
add to favorites
×
Save as Personal and add changes to this tab that will be seen only by you. Learn more ›
×
You can save this tab as Personal to edit and correct it or add notes. All changes will be seen only by you. Learn more »
launch autoscroll
font size
0
reset
how to read this tab
guitar tuner
edit
Autoscroll
slow
fast
+/-
esc
set tempo
stop
Author
Okeey. This is the riff. It's played pretty much. Enjoy ! (: Comment for questions.

Tuning: DGCFAD (Guitar tune down 1 step)

Guitar 1:
D|---------------------------------------------------|
A|---------------------------------------------------|
F|---------------------------------------------------|
C|--------12-------11-------14-------12-------11h12--|
G|---------------------------------------------------|
D|--10-10----10-10----10-10----10-10----10-10--------|
Pm   .  .     .  .     .  .     .  .     .  .

D|---------------------------------------------------|
A|---------------------------------------------------|
F|---------------------------------------------------|
C|--------12-------11-------14-------12-------12p11--|
G|---------------------------------------------------|
D|--10-10----10-10----10-10----10-10----10-10--------|
Pm   .  .     .  .     .  .     .  .     .  .

D|-----------------------------------------|
A|-----------------------------------------|
F|-----------------------------------------|
C|------12-----11-----14-----12-----11h12--|
G|-----------------------------------------|
D|--7-7----7-7----7-7----7-7----7-7--------|
Pm  . .    . .    . .    . .    . .

D|-----------------------------------------|
A|------------------5----------------------|
F|------7-----6-----------7-----6h7--------|
C|-----------------------------------------|
G|-----------------------------------------|
D|--3-3---3-3---3-3---3-3---3-3------------|
Pm  . .   . .   . .   . .   . .

Guitar 2:
D|-----------------------------------------|
A|-----------------------------------------|
F|-----------------------------------------|
C|--12~~--------9~----5~-------------------|
G|--12~~--------9~----5~-------------------|
D|--10~~--------7~----3~-------------------|

            
            
Suggest correction
Creating personal tab
Creating personal tab
You can edit any tab online and save it as your Personal.

You can edit, replace or remove any tab part or add personal notes – all changes will be seen only by you.

Personal tabs can be accessed anytime from any device, even offline.
Learn more »
comments
print report bad tab
11 comments total. Showing first comments.
+1 reply
P-H-O-B-I-A 30 Jan 30, 2008 07:32 AM

i assume when u put 12h11 you mean a pull off...12p11.....jus a lil bit confusin puttin the h there.....not bad
tho...good song :)

+1 reply
hittbull 87 Jan 31, 2008 01:48 AM

Hahaha. Yeah ;) Thanks (:

+3 reply
metallicaFan234 41 Feb 03, 2008 04:02 AM

i think its like that:

D|--------------------------------
A|--------------------------------
F|--------------------------------
C|-----------12-------11-------14-
G|--------12-------12-------12----
D|-----10-------10-------10-------


and so on.
Im not sure but this song is so great, i dont wanna play it the wrong way ^^

guest
You may want to rate the tab now too:
select rating
Wanna post a correction for this tab? Suggest correction