Oops, an error
Loading. Please wait.

Four Words To Choke Upon tab

version 2
version 2

Whole song

Interactive

4,319 views 1 this week
7 commentsread comments
1 2 3 4 5
x 8
add to favorites
×
Save as Personal and add changes to this tab that will be seen only by you. Learn more ›
×
You can save this tab as Personal to edit and correct it or add notes. All changes will be seen only by you. Learn more »
launch autoscroll
font size
0
reset
how to read this tab
guitar tuner
backing track
0:00
0:00
edit
Autoscroll
slow
fast
+/-
esc
set tempo
stop
Author
Difficulty
Intro:(Guitar 1)x4
E|-----14----14--14----15----15----15----14----14--14----15----15-||
B|-1313--1313--13--1313--1313--1313--1313--1313--13--1313--1313---||
G|----------------------------------------------------------------||
D|----------------------------------------------------------------||
A|----------------------------------------------------------------||
E|----------------------------------------------------------------||

E|---13-----------||
B|-13-------------||
G|----------------||
D|----------------||
A|----------------||
E|----------------||

Intro:(Guitar 2)x1
E|--------------------------------||
B|--------------------------------||
G|--------------------------------||
D|-0~-0~-----------------0~--0~---||
A|-0~-0~-XXXX------------0~--0~---||
E|-0~-0~-XXXX(picscrape)-0~--0~---||

Main Phase:(Both Guitars)
E|-------------------------------||
B|-------------------------------||
G|-------------------------------||
D|320------320-----320--3--------||
A|320------320-----320--3--------||
E|320--3*--320--3*-320--3--------||
  ...      ...     ...  
Verse:(Guitar 1)x4
E|--------------------------------||
B|-00-7-00-7-0-7-00-8-00-8-0-8----||
G|--------------------------------||
D|--------------------------------||
A|--------------------------------||
E|--------------------------------||

Verse:(Guitar 2)x4
E|------||
B|------||
G|------||
D|110---||
A|110---||
E|110---||
  ...

Main Phase:(Both Guitars)x1
E|-------------------------------||
B|-------------------------------||
G|-------------------------------||
D|320------320-----320--3--------||
A|320------320-----320--3--------||
E|320--3*--320--3*-320--3--------||
  ...      ...     ...

 Verse:(Guitar 1)x4
E|--------------------------------||
B|-00-7-00-7-0-7-00-8-00-8-0-8----||
G|--------------------------------||
D|--------------------------------||
A|--------------------------------||
E|--------------------------------||

Verse:(Guitar 2)x4
E|------||
B|------||
G|------||
D|110---||
A|110---||
E|110---||
  ...

Main Phase:(Both Guitars)x1
E|-------------------------------||
B|-------------------------------||
G|-------------------------------||
D|320------320-----320--3--------||
A|320------320-----320--3--------||
E|320--3*--320--3*-320--3--------||
  ...      ...     ... 

Chorus:(Both Guitars)x3
E|----------------------------------------------------------------||
B|----------------------------------------------------------------||
G|----------------------------------------------------------------||
D|-77777777-55555555-44444444-33333333----------------------------||
A|-55555555-33333333-22222222-11111111----------------------------||
E|----------------------------------------------------------------|| 
   ........ ........ ........ ........

Post Chorus:(Both Guitars)x1
E|----------------------------------||
B|----------------------------------||
G|----------------------------------||
D|--77777777-5~-4~-3~---------------||
A|--55555555-3~-2~-1~---------------||
E|----------------------------------||
    ........

Verse 2:(Both Guitars)x2
E|------------------------------------------------||
B|------------------------------------------------||
G|------------------------------------------------||
D|------------------------------------------------||
A|---5--5-1313---5--5-----------------------------||
E|-00-00-------00-00--3B~~------------------------||
   .. ..       .. ..

Main Phase:(Both Guitars)
E|-------------------------------||
B|-------------------------------||
G|-------------------------------||
D|320------320-----320--3--------||
A|320------320-----320--3--------||
E|320--3*--320--3*-320--3--------||
  ...      ...     ...  
Verse:(Guitar 1)x4
E|--------------------------------||
B|-00-7-00-7-0-7-00-8-00-8-0-8----||
G|--------------------------------||
D|--------------------------------||
A|--------------------------------||
E|--------------------------------||

Verse:(Guitar 2)x4
E|------||
B|------||
G|------||
D|110---||
A|110---||
E|110---||
  ...

Main Phase:(Both Guitars)x1
E|-------------------------------||
B|-------------------------------||
G|-------------------------------||
D|320------320-----320--3--------||
A|320------320-----320--3--------||
E|320--3*--320--3*-320--3--------||
  ...      ...     ...

 Verse:(Guitar 1)x4
E|--------------------------------||
B|-00-7-00-7-0-7-00-8-00-8-0-8----||
G|--------------------------------||
D|--------------------------------||
A|--------------------------------||
E|--------------------------------||

Verse:(Guitar 2)x4
E|------||
B|------||
G|------||
D|110---||
A|110---||
E|110---||
  ...

Main Phase:(Both Guitars)x1
E|-------------------------------||
B|-------------------------------||
G|-------------------------------||
D|320------320-----320--3--------||
A|320------320-----320--3--------||
E|320--3*--320--3*-320--3--------||
  ...      ...     ... 

Chorus:(Both Guitars)x3
E|----------------------------------------------------------------||
B|----------------------------------------------------------------||
G|----------------------------------------------------------------||
D|-77777777-55555555-44444444-33333333----------------------------||
A|-55555555-33333333-22222222-11111111----------------------------||
E|----------------------------------------------------------------|| 
   ........ ........ ........ ........

Post Chorus:(Both Guitars)x1
E|----------------------------------||
B|----------------------------------||
G|----------------------------------||
D|--77777777-5~-4~-3~---------------||
A|--55555555-3~-2~-1~---------------||
E|----------------------------------||
    ........

Verse 2:(Both Guitars)x2
E|------------------------------------------------||
B|------------------------------------------------||
G|------------------------------------------------||
D|------------------------------------------------||
A|---5--5-1313---5--5-----------------------------||
E|-00-00-------00-00--3B~~------------------------||
   .. ..       .. .. 

Rythem To Back Up Solo:x8
E|----------------------------||
B|----------------------------||
G|----------------------------||
D|----------------------------||
A|---3-----3-----3------------||
E|-00----00----00-------------||
   ..    ..    ..
Guitar solo:x8
E|12-7-9------||
B|------------||
G|------------||
D|------------||
A|------------||
E|------------||
  TTTTTTTTTTTT
Rythem To Back up Solo #2:x4
E|--------------------------||
B|--------------------------||
G|--------------------------||
D|--------------------------||
A|---------5---5--5---------||
E|-00-3B-00--00-00----------||
   ..    ..  .. ..
Guitar #2:
E|-12-7-9--12-5-7-12-3-5-12-5-7-12(x8)10(x8)12(x8)9(x8)-9B-10B-12B~~~-||
B|--------------------------------------------------------------------||
G|--------------------------------------------------------------------||
D|--------------------------------------------------------------------||
A|--------------------------------------------------------------------||
E|--------------------------------------------------------------------||
  TTTTTTTTTTTTTTTTTTTTTTTTTTTTTTTTTTTTTTTTTTTTTTTTTTTTTTTTTTTTTTTT

Chorus:(Both Guitars)x3
E|----------------------------------------------------------------||
B|----------------------------------------------------------------||
G|----------------------------------------------------------------||
D|-77777777-55555555-44444444-33333333----------------------------||
A|-55555555-33333333-22222222-11111111----------------------------||
E|----------------------------------------------------------------|| 
   ........ ........ ........ ........

Post Chorus:(Both Guitars)x1
E|----------------------------------||
B|----------------------------------||
G|----------------------------------||
D|--77777777-5~-4~-3~---------------||
A|--55555555-3~-2~-1~---------------||
E|----------------------------------||
    ........

Verse 2:(Both Guitars)x2(END)
E|------------------------------------------------||
B|------------------------------------------------||
G|------------------------------------------------||
D|------------------------------------------------||
A|---5--5-1313---5--5-----------------------------||
E|-00-00-------00-00--3B~~------------------------||
   .. ..       .. ..


Legend
palm mute=.
Tap=T
Bend=B
let ring=~
Pinch Harmonic=*


Rateeee Please

BULLET FOR MY VALENTINE IS DE BEST BAND EVA!!!! 

            
            
Suggest correction
Creating personal tab
Creating personal tab
You can edit any tab online and save it as your Personal.

You can edit, replace or remove any tab part or add personal notes – all changes will be seen only by you.

Personal tabs can be accessed anytime from any device, even offline.
Learn more »
comments
print report bad tab
7 comments total. Showing first comments.
-1 reply
kiefermatot 10,367 Dec 22, 2005 11:03 AM

Good job.

0 reply
Triviallica 74 Jan 10, 2006 02:55 PM

This tab is way off, first you should let everyone know its in Drop C tuning, then after that i think you may only have a few notes or chords right, you dont have any notes right in the intro riff, the whole thing just needs a lot of work

0 reply
Triviallica 74 Jan 10, 2006 02:56 PM

see my comments

guest
You may want to rate the tab now too:
select rating
Wanna post a correction for this tab? Suggest correction