Oops, an error
Loading. Please wait.
We have an official Hand Of Blood tab made by UG professional guitarists. Check out the tab »
×
1,941 views 15 this week
3 commentsread comments
1 2 3 4 5
3 more votes to show rating
add to favorites
×
Save as Personal and add changes to this tab that will be seen only by you. Learn more ›
×
You can save this tab as Personal to edit and correct it or add notes. All changes will be seen only by you. Learn more »
launch autoscroll
font size
0
reset
guitar tuner
backing track
0:00
0:00
edit
Autoscroll
slow
fast
+/-
esc
set tempo
stop
Author
Difficulty
    Hand of blood 5 saiter
Intro
G|-------------------------------------------------------|
D|-------------------------------------------------------|
A|-------------------------------------------------------|
E|-------------------------------------------------------| 
B|-1---1----1-1-1-1-1-1-1-1-1-1-1-1-1-1-1----------------|

 
G|-------------------------------------------------------|
D|-------------------------------------------------------|
A|-------------------------------------------------------|
E|----1-3-----1------------------------------------------| 
B|-1------1-4---1-4-4------34341-(x2)--------------------|



G|-------------------------------------------------------|
D|-------------------------------------------------------|
A|-------------------------------------------------------|
E|-------------------------------3-4-3-------------------| 
B|-4-4-4-4-4-4-4-4-4-4-6-6-6-6-6-------------------------|


 Pre verse
G|-------------------------------------------------------|
D|-------------------------------------------------------|
A|-------------------------------------------------------|
E|---------------------3---------------------------------| 
B|-1---------4-------------------------------------------|

verse
G|-------------------------------------------------------|
D|-------------------------------------------------------|
A|-------------------------------------------------------|
E|--------------------------------1-11-------------------| 
B|-1-1-111---------1-1-111---4-44------------------------|

 Pre Chorus
G|-------------------------------------------------------|
D|-------------------------------------------------------|
A|-------------------------------------------------------|
E|-------------------------------------------------------| 
B|-1--1--1--1-1-1-1-1------------------------------------|

Chorus
G|--------------------------------------------------------------|
D|--------------------------------------------------------------|
A|--------------------------------------------------------------|
E|-----3-----------3--------------------------------------3-4-3-| 
B|-4-1---1-111-4-1---1-111--4-4-4-4-4-4-4-4-4-4-5-5-5-5-5-------|


G|-------------------------------------------------------|
D|-------------------------------------------------------|
A|-------------------------------------------------------|
E|-------------------------------3-4-3-------------------| 
B|-4-4-4-4-4-4-4-4-4-4-5-5-5-5-5-------------------------|


First part of solo
G|-------------------------------------------------------|
D|-------------------------------------------------------|
A|-------------------------------------------------------|
E|---------------------------------1-11------------------| 
B|-1-1-111---------1-1-111---4-44------------------------|

End of solo
G|-------------------------------------------------------|
D|-------------------------------------------------------|
A|-------------------------------------------------------|
E|-------------------------------------------------------| 
B|-1-1-1-1-1-(x4)-11111111111111111----------------------|

End
G|-------------------------------------------------------|
D|-------------------------------------------------------|
A|-------------------------------------------------------|
E|-------------------------------------------------------| 
B|-1-1-111-----------------------------------------------|


Order:
INTRO
PRE VERSE
VERSE x4
PRE CHORUS
CHORUS x2
VERSE x4
PRE CHORUS
CHORUS x2
FIRST PART OF SOLO x2
MAIN PART OF SOLO x3
END OF SOLO
CHORUS x2
END

            
            
Suggest correction
Creating personal tab
Creating personal tab
You can edit any tab online and save it as your Personal.

You can edit, replace or remove any tab part or add personal notes – all changes will be seen only by you.

Personal tabs can be accessed anytime from any device, even offline.
Learn more »
Give kudos to tab author, rate the tab!
1 2 3 4 5
comments
print report bad tab
3 comments total.
0 reply
Mr.Feather 90 Jul 27, 2009 11:13 PM

would it not make sense to just have it tuned to drop C? then you can play the open string instead of 1 all the time.

also.. i can't seem to see the 'main part of solo' anywhere?

still, it's a good tab, it does its job, and it's accurate. 4 stars, but that will change if you either change it to drop C or add in the main part of the solo.

0 reply
LMBozovich 1,346 a day ago

I agree with Mr.Feather. You’ve done a good job making a tab for this on a 5-string, but it defeats the purpose of others learning to transcribe it to this from a 4-string.

0 reply
LMBozovich 1,346 a day ago

I meant learn to do this by ear

guest
You may want to rate the tab now too:
select rating
Wanna post a correction for this tab? Suggest correction