Oops, an error
Loading. Please wait.
We have an official Hearts Burst Into Fire tab made by UG professional guitarists. Check out the tab »
×
1,063 views 1 this week
no commentswrite comment
1 2 3 4 5
3 more votes to show rating
add to favorites
×
Save as Personal and add changes to this tab that will be seen only by you. Learn more ›
×
You can save this tab as Personal to edit and correct it or add notes. All changes will be seen only by you. Learn more »
launch autoscroll
font size
0
reset
guitar tuner
backing track
0:00
0:00
edit
Autoscroll
slow
fast
+/-
esc
set tempo
stop
Tabbed By : Keegan
e-mail: Roboturner1511@gmail.com

Okay, so this isn't that different from the one that "Kie" made. Just has some minor 
changes, and some big ones.

Enjoy!

Tuning: CGCF
Intro (0:26 - 0:54
F|--------------------------------------------------------------------------|
C|--------------------------------------------------------------------------|
G|---------11-11~-11-1135--------------11-11~-11-1135-11-11-11-1------------|
C|0~0~0~0~---------------00-00~-00-00~---------------------------0~~~3~~~0~-|
End of intro

Verse (0:55 - 1:15)
I'm not gonna tab out the pattern.
F---------------------|
C---------------------|
G---------------------| Two times.
C-3333333333-00000000-|

Pre Chorus (1:16 - 1:25)
Now, I think the other tab had it pretty much correct one this one. Just some minor changes.
F-----------------------------------------------|
C-----------------------------------------------|
G-111111-1-3-555555-5-3-111111-1-1-333333-1-3-5-|
C-----------------------------------------------|

Chorus (1:25 - 1:46)
That's a '1' and a '3', not 13.
F-------------------|
C-------------------|
G-5-3h5p3-8-13-6-3~-|  Twice.
C-------------------|

The other tab had it dead on, so I didn't make any changes.
F--------------------------------------------|
C--------------------------------------------|
G-55555-11111-33333-1-3-555555-111111-333333-|
C--------------------------------------------|

Verse
Pre Chorus
Chorus

Bridge (2:37 - around 3:00) I wasn't sure about this part. Either way sounds okay, I 
guess. Play it how you want it.
F---------7/15-14-12-----------------------------------|
C------------------------------------------------------|
G---1-3--------------1-3-1~--1-3----7/15-14-12/-1-3----|
C-0~----0~-----------------------0~-----------------3~-|

and I'm pretty sure I hear this while the snare is doing rolls just before the pre chorus.
F-------------------------|
C-------------------------|
G7/15-17/1919191919191919-|
C-------------------------|

Pre Chorus
Chorus

Outro (3:51 - end)

Play verse (3's and 0's, if you forgot)

Then this:
G-1-3---|
C----0~~| Hold til end.

Annnnnnnd you're done! Rate, and feel free to correct me on any of my mistakes.

-Keegan

            
            
Suggest correction
Creating personal tab
Creating personal tab
You can edit any tab online and save it as your Personal.

You can edit, replace or remove any tab part or add personal notes – all changes will be seen only by you.

Personal tabs can be accessed anytime from any device, even offline.
Learn more »
Give kudos to tab author, rate the tab!
1 2 3 4 5
comments
print report bad tab
guest
You may want to rate the tab now too:
select rating
Wanna post a correction for this tab? Suggest correction