Oops, an error
Loading. Please wait.
We have an official Hearts Burst Into Fire tab made by UG professional guitarists. Check out the tab »
×
42,913 views 12 this week
13 commentsread comments
1 2 3 4 5
x 17
add to favorites
×
Save as Personal and add changes to this tab that will be seen only by you. Learn more ›
×
You can save this tab as Personal to edit and correct it or add notes. All changes will be seen only by you. Learn more »
launch autoscroll
font size
0
reset
guitar tuner
backing track
0:00
0:00
edit
Autoscroll
slow
fast
+/-
esc
set tempo
stop
Here it goes... *Hearts Burst Into Fire!~ ^^
Don't have much 2 say only, i hope my ears worked good and tabbed it right!
Hope U like it!

=Intro=
F-------|
C-------|  4x
G-------|
C-3~-0~-|

F-------------------------------------|
C-------------------------------------|  2x (0...00~) not played second time
G-1-1-11~-1-1-11-333------------------|
C-------------------0-(0-00~-0-0-00~)-|

F------------|
C------------|
G-3~---------|
C----3~----0~|

=Riff=
F---------------------|
C---------------------|  2x
G---------------------|
C-3333333333-00000000-|

=Pre-Chorus=
F-----------------------------------------------|
C-----------------------------------------------|
G-111111-1-3-555555-5-3-111111-1-1-333333-3x1-3-|
C-----------------------------------------------|

=Chorus=
F----------------------------|
C----------------------------|
G-5xxx3h5h3-1xxx88-33333-1-3-|
C----------------------------|

F--------------------------------------------|
C--------------------------------------------|
G-55555-11111-33333-1-3-555555-111111-333333-|
C--------------------------------------------|

=Riff=
F---------------------|
C---------------------|  2x
G---------------------|
C-3333333333-00000000-|

=Pre-Chorus=
F-----------------------------------------------|
C-----------------------------------------------|
G-111111-1-3-555555-5-3-111111-1-1-333333-3x1-3-|
C-----------------------------------------------|

=Chorus=
F----------------------------|
C----------------------------|
G-5xxx3h5h3-1xxx88-33333-1-3-|
C----------------------------|

F--------------------------------------------|
C--------------------------------------------|
G-55555-11111-33333-1-3-555555-111111-333333-|
C--------------------------------------------|

=Bridge=
F--------------------------------------------------|
C--------------------------------------------------|
G---1-3---7/15-14-12/-1-3-1~--1-3----12-11/-1-3----|
C-0~----0~-----------------------0~-------------3~-|

=Pre-Chorus=
F-----------------------------------------------|
C-----------------------------------------------|
G-111111-1-3-555555-5-3-111111-1-1-333333-3x1-3-|
C-----------------------------------------------|

=Chorus=
F----------------------------|
C----------------------------|
G-5xxx3h5h3-1xxx88-33333-1-3-|
C----------------------------|

F-----------------------------------------------|
C-----------------------------------------------|
G-55555-11111-33333-1-3-555555-111111-333333----|
C--------------------------------------------3~-|

=Break=

=Outro=
F---------------------|
C---------------------|  2x
G---------------------|
C-3333333333-00000000-|

F--------|
C--------|
G-1-3----|
C-----0~-|

Please Rate! Made by ~*KIE*~

            
            
Suggest correction
Creating personal tab
Creating personal tab
You can edit any tab online and save it as your Personal.

You can edit, replace or remove any tab part or add personal notes – all changes will be seen only by you.

Personal tabs can be accessed anytime from any device, even offline.
Learn more »
comments
print report bad tab
13 comments total. Showing first comments. show 1 bad comment
+4 reply
love_hates_me 10 Mar 07, 2008 04:17 PM

i didint understand the first part of the chorus bust the rest is good.

+3 reply
~*Kie*~ 263 Mar 20, 2008 11:53 AM

just mute u dont need to play

guest
You may want to rate the tab now too:
select rating
Wanna post a correction for this tab? Suggest correction