Oops, an error
Loading. Please wait.
We have an official Hearts Burst Into Fire tab made by UG professional guitarists. Check out the tab »
×

Hearts Burst Into Fire tab

13,808 views 1 this week
5 commentsread comments
1 2 3 4 5
x 4
add to favorites
×
Save as Personal and add changes to this tab that will be seen only by you. Learn more ›
×
You can save this tab as Personal to edit and correct it or add notes. All changes will be seen only by you. Learn more »
launch autoscroll
font size
0
reset
how to read this tab
guitar tuner
backing track
0:00
0:00
edit
Autoscroll
slow
fast
+/-
esc
set tempo
stop
Author
Well i searched the whole damn internet for tabs for this song and couldnt find any. so
figured id teach myself it and give the public what you. i find this pretty accurate if
have anything to help it sound better feel free to respond. anyway here it is. o and 
this is in drop C like all the rest of their songs.

ft = fingertap
x = times
X's= i cant remember for some reason what its called but you have your fingers over the
so it just makes like a clicking sound
h = hammer on
s = slide
~ = squeal

Intro

d----------3-----3-----3-----3-----------------------------------------------| x2
A------------6-----6-----6-----6------5---5---5-5----------------------------|
F--------------5-----5-----5-----5------5---5--------------------------------|
C-------3--------------------------------------------------------------------|
G---3------------------------------------------------------------------------|
C-----3-----------------------------3----------------------------------------|

d---------------------------------------------------------------------------|
A----5---6---ft13----6-5-6--1s3--1-1--3-3--5-5--6-6--8-8--------------------|
F---------------------------------------------------------------------------|
C---------------------------------------------------------------------------|
G---------------------------------------------------------------------------|
C---------------------------------------------------------------------------|

finger tap the entire following sequence

d---------------------------------------------------------------------------|
A---10-5-6-10-5-8-x4----8-3-5-8-3-6-x4--------------------------------------|
F---------------------------------------------------------------------------|
C---------------------------------------------------------------------------|
G---------------------------------------------------------------------------|
C---------------------------------------------------------------------------|

d---------------------------------------------------------------------------|
A--3-5-6-1--10-8-6-8-10-11-10--s6----~6-------------------------------------|
F---------------------------------------------------------------------------|
C---------------------------------------------------------------------------|
G---------------------------------------------------------------------------|
C---------------------------------------------------------------------------|

Verse x however many till the pre-chorus

d---------------------------------------------------------------------------|
A-----------6-5--------5-6-------6-5-----5-----6----------------------------|
F-----------5-5--------5-5-------5-5-----5-----5----------------------------|
C--3--X-X-X-3-3-X-X-X--3-3-X-X-X-3-3-X-X-3-X-X-3----------------------------|
G--3--X-X-X-3-3-X-X-X--3-3-X-X-X-3-3-X-X-3-X-X-3----------------------------|
C--3--X-X-X-3-3-X-X-X--3-3-X-X-X-3-3-X-X-3-X-X-3----------------------------|

Pre-Chorus

d---------------------------------------------------------------------------|
A---------------------------------------------------------------------------|
F--3-X-X-3-X-X-3-3-3-3-5-5-5-5-7-7-7-7-X-7-7-7-7-5-5-5-5-3-3-3-3-X-3-3-3-3--|
C--3-X-X-3-X-X-3-3-3-3-5-5-5-5-7-7-7-7-X-7-7-7-7-5-5-5-5-3-3-3-3-X-3-3-3-3--|
G--1-X-X-1-X-X-1-1-1-1-3-3-3-3-5-5-5-5-X-5-5-5-5-3-3-3-3-1-1-1-1-X-1-1-1-1--|
C---------------------------------------------------------------------------|

d---------------------------------------------------------------------------|
A---------------------------------------------------------------------------|
F--3-3-3-3-5-5-5-5--7-7-7-5-5-5-0-------------------------------------------|
C--3-3-3-3-5-5-5-5--7-7-7-5-5-5-0-------------------------------------------|
G--1-1-1-1-3-3-3-3--5-5-5-3-3-3-0-------------------------------------------|
C---------------------------------------------------------------------------|

d----------------------------------------------------------------------------| x2
A---6h8h10-13-10-8-10-8--s6--------------------------------------------------|
F----------------------------------------------------------------------------|
C----------------------------------------------------------------------------|
G----------------------------------------------------------------------------|
C----------------------------------------------------------------------------|

Chorus

d----------------------------------------------------------------------------| x2
A----------------------------------------------------------------------------|
F----------3-3-3-3-5-5-5-5-X-5-5-5-5----3--5---------------------------------|
C--0-0-0-0-3-3-3-3-5-5-5-5-X-5-5-5-5----3--5---------------------------------|
G--0-0-0-0-1-1-1-1-3-3-3-3-X-3-3-3-3----1--3---------------------------------|
C--0-0-0-0-------------------------------------------------------------------|

Bridge 1 is extremely same chords as chorus but held out then after the verse exactly
same but a little different of a strumming pattern, easy as hell to figure out

Bridge 2 is just

d---13-12-------------------------------------------------------------------|
A---------11-10-------------------------------------------------------------|
F---------------------------------------------------------------------------|
C---------------------------------------------------------------------------|
G---------------------------------------------------------------------------|
C---------------------------------------------------------------------------|
 over and over

The outro i wouldnt really qorry aobut their playin just mess around with some notes on
d string that would be these frets: 13 12 15 17 19 10 etc

Well there you have it I hope you enjoy it. i think its pretty accurate but you tell me. 
ya!

            
            
Suggest correction
Creating personal tab
Creating personal tab
You can edit any tab online and save it as your Personal.

You can edit, replace or remove any tab part or add personal notes – all changes will be seen only by you.

Personal tabs can be accessed anytime from any device, even offline.
Learn more »
comments
print report bad tab
5 comments total. Showing first comments.
0 reply
venomouskiss320 92 Jul 17, 2008 03:04 PM

ehhh sorry but its kind of missing alot

0 reply
Ghost Stalker 12 Jul 18, 2008 02:20 PM

You say, you searched the whole internet for tabs for this song, yet there are 3 more versions on this site, 2 of which have been up since SAF was released...couldnt have searched very far...

0 reply
Ghost Stalker 12 Jul 31, 2008 10:43 AM

also its very wrong in places and missing parts....

guest
You may want to rate the tab now too:
select rating
Wanna post a correction for this tab? Suggest correction