Oops, an error
Loading. Please wait.
We have an official Hearts Burst Into Fire tab made by UG professional guitarists. Check out the tab »
×

Hearts Burst Into Fire tab

89,923 views 1 this week
4 commentsread comments
1 2 3 4 5
x 8
add to favorites
×
Save as Personal and add changes to this tab that will be seen only by you. Learn more ›
×
You can save this tab as Personal to edit and correct it or add notes. All changes will be seen only by you. Learn more »
launch autoscroll
font size
0
reset
how to read this tab
guitar tuner
backing track
0:00
0:00
edit
Autoscroll
slow
fast
+/-
esc
set tempo
stop
Bullet For My Valentine
Heart Bursts Into Fire
Scream Aim Fire
2008
Submitted by: paramore_fans@yahoo.com

Guitar 1: Matt Tuck
Guitar 2: Michael Padget

Key: Eb

Tuning: Standard EADGBe

Chords used:
Eb -  x688xx
Bb -  x133xx or 688xxx
Cm -  8x88xx or 8-10-10-x-x-x or x355xx or x3x34x
G# -  466xxx
EbM7 -x687xx 
Cm2 - 8x87xx or x3x33x


Intro:

Part 1:

Guitar 1: x2
                Eb                          Cm
e|----------------------------------|-----------------|
B|---------6-----6-----6-----6------|-----------------|
G|-----8-----8-----8-----8-----8----|-----8---7-8-----|
D|---8---8-----8-----8-----8-----8--|---8---8-----8---|
A|-6--------------------------------|-----------------|
E|----------------------------------|-8-------------8-|

                Eb                              Cm
e|----------------------------------|--------------------------|
B|---------6-----6-----6-----6------|--------------------------|
G|-----8-----8-----8-----8-----8----|-----8---7-8------7-8-----|
D|---8---8-----8-----8-----8-----8--|---8---8-----8--------8---|
A|-6--------------------------------|--------------------------|
E|----------------------------------|-8-------------8--------8-|


Guitar 2:
       Eb            Cm         Eb           Cm
e|-------6-----|-------------|-------|------------------|
B|-3--4------4-|-3--4--1-----|-----1-|-1--3-3--4-4--6-6-|
G|-------------|-----------3-|-3-----|------------------|
D|-------------|-------------|-------|------------------|
A|-------------|-------------|-------|------------------|
E|-------------|-------------|-------|------------------|


Part 2:

Guitar 1:
       G#           Cm
e|------------|------------|
B|------------|------------|
G|------------|-5--5--5--5-|
D|-6--6--6--6-|-5--5--5--5-|
A|-6--6--6--6-|-3--3--3--3-|
E|-4--4--4--4-|------------|
       x2           x2

       G#           Cm      Bb
e|------------|------------|---|
B|------------|------------|---|
G|------------|-5--5--5--5-|-3-|
D|-6--6--6--6-|-5--5--5--5-|-3-|
A|-6--6--6--6-|-3--3--3--3-|-1-|
E|-4--4--4--4-|------------|---|
       x2           x2


Guitar 2: L = Left Hand, R = Right Hand
Very fast tapping!!!
                   G#
e|-----------------|----------------------|
B|-----------------|----------------------|
G|-8h10p8h10h12p10-|-8h10p8h10h12p10p8h10-|
D|-----------------|----------------------|
A|-----------------|----------------------|
E|-----------------|----------------------|
   L  L L  L  R  L   L  L L  L  R  L L  L
         x4

            Cm
e|--------------|------------|
B|--------------|------------|
G|-7h8p7h8h10p8-|-7h8p7h8h10-|
D|--------------|------------|
A|--------------|------------|
E|--------------|------------|
   L L L L  R L   L L L L  R
         x4

          G#                Cm        Bb
e|-------------------|---------------|---
B|-------------------|-6h8p6---6-8-9-|-8-
G|-5--7-7--8-8-------|-------8-------|---
D|--------------8-8--|---------------|---
A|-------------------|---------------|---
E|-------------------|---------------|---


Part 3:

Guitar 1: up to verses
        Eb           EbM7
e|--------------|-------------
B|--------------|-------------
G|-8------------|-7-----------
D|-8------------|-8----------- x2
A|-6--6-6-6-6-6-|-6-6-6-6-6-6-
E|--------------|-------------

        Cm           Cm2
e|--------------|-------------
B|--------------|-------------
G|-8------------|-7-----------
D|-8------------|-8----------- x2
A|-x------------|-x-----------
E|-8--8-8-8-8-8-|-8-8-8-8-8-8-


Guitar 2:
   Eb   Cm
e|----|-18-|
B|-4--|----|
G|----|----|
D|----|----|
A|----|----|
E|----|----|


Verse 1:
Eb    EbM7   Eb
  I'm coming home
          EbM7
I've been gone for
        Cm  Cm2
far too long
         Cm
Do you remember
Cm2   Eb
me at all?
    EbM7
I'm leaving
Eb          EbM7
  Hell I've fucked
           Cm
things up again
    Cm2
I'm dreaming
Cm         Cm2
  Too much time
without you spent


Refrain:
G# Bb Cm
   It hurts
      Bb G#
whoww so sore
        Bb
Now I'm Torn
Now I'm Torn


Chorus:
Cm G# Bb              G# Bb
        I've been far a----way
Cm G# Bb
        When I see your face my
Cm           G#   Bb  G# Bb
Hearts Burst into Fire
Cm           G#   Bb
Hearts Burst Into Fire


Guitar 2: Chorus
    Cm         G#         Bb
e|-------|-6--4--3--4-|-------|
B|-4-6-4-|------------|-6~--4-|
G|-------|------------|-------|
D|-------|------------|-------|
A|-------|------------|-------|
E|-------|------------|-------|

    Cm         G#               Bb
e|-------|-6--4--3--4-|------3-4-3---3------|
B|-4-6-4-|------------|-6~---------6---6--4-|
G|-------|------------|---------------------|
D|-------|------------|---------------------|
A|-------|------------|---------------------|
E|-------|------------|---------------------|

        Cm              G#                Bb            G#  Bb
e|----------------|------------|-----------------------|---|---|
B|----------------|------------|-----------------------|---|---|
G|----------------|------------|-3---------------3-3-3-|---|-3-|
D|-5----6---5---3-|------1-3-0-|-3---------------3-3-3-|-6-|-3-| x2
A|-3--3---3---3---|-6----------|-1-1-1-1-1-1-1-1-1-1-1-|-6-|-1-|
E|----------------|-4--4-------|-----------------------|-4-|---|


Verse 2:
Eb       EbM7 Eb
  You're not alone
  EbM7
I know I'm far
     Cm  Cm2
from home
         Cm
Do You Remember
Cm2   Eb
Me At All?
    EbM7
I'm Leaving
Eb       EbM7
  Do you wait
        Cm
for me again?
     Cm2
I'm Screaming
Cm        Cm2
  No more days
without you spent


(Repeat Refrain and Chorus)


Bridge: silence, Guitar 2 is plucking here
Cm
  Now that I've
         G#  Bb
grown so lonely
Cm
  No arms just
          G#   Bb
sheets to hold me
G#
  Has this world
        G# Bb
stopped turning
Cm
  Are we forever
   G# Bb Eb
to be a--part?
                   (hold)
Forever to be apart


Guitar 2: Bridge, plucking
e|-3-----3-----------------4-----4-----3-----3-----|
B|---4-----4---6-4---6-4-----4-----4-----4-----4---|
G|-----3-----3-----3-----3-----3-----3-----3-----3-|
D|-------------------------------------------------| x2
A|-------------------------------------------------|
E|-------------------------------------------------|

e|-3-----3-----------------6-----6-----3-----3-----|
B|---4-----4---6-4---6-4-----4-----4-----4-----4---|
G|-----3-----3-----3-----3-----3-----3-----3-----3-|
D|-------------------------------------------------|
A|-------------------------------------------------|
E|-------------------------------------------------|

e|-3-----3-----------------4-----4-----3-----3-----|
B|---4-----4---6-4---6-4-----4-----4-----4-----4---|
G|-----3-----3-----3-----3-----3-----3-----3-----3-|
D|-------------------------------------------------|
A|-------------------------------------------------|
E|-------------------------------------------------|


(Repeat Refrain and Chorus)


Outro:
Eb(hold)
  I'm coming home I've
been gone for too long
(I'm coming home) Would
             (hold) Eb  EbM7 Eb EbM7
you remember me at  all?
Cm Cm2         Cm     Cm2   Eb
      Do you remember me at all?
    EbM7   Eb
I'm leaving  I'm
 EbM7    Cm   Cm2
screaming I'm Dreaming
     Cm           G# Bb Cm(hold)
When HEARTS BURST IN-TO FIRE!


Guitar 2:

I'm coming home, I've been gone...
e|-11-10-------------|-11-10-------------|
B|-------11----------|-------11------8---|
G|----------10-8-7-8-|----------10-8---8-|
D|-------------------|-------------------|
A|-------------------|-------------------|
E|-------------------|-------------------|
         x3


   FIRE!!!!
e|-/15-13------------------/15-13------------------|
B|--------15----------------------15---------------|
G|-----------13-12-10-12~------------13-12-/15-12~-|
D|-------------------------------------------------|
A|-------------------------------------------------|
E|-------------------------------------------------|

________________________________________________________

Bass Tab

Key: Eb

Tuning: Standard EADG

Intro:

Part 1:
G|--------
D|--------
A|-6----3- x4
E|--------

Part 2: fast tapping on lead guitar
G|------------------------------------
D|------------------------------------
A|-------------------3-3-3-3--3-3-3-3-
E|-4-4-4-4--4-4-4-4-------------------

G|------------------------------
D|------------------------------
A|-------------------3-3-3-3--1-
E|-4-4-4-4--4-4-4-4-------------

Part 3: Fast beat
G|-------
D|-------
A|-6---3-
E|-------


Verses: 

"I'm coming home"
G|--------------------------
D|--------------------------
A|-6-6-6-6-6-6--3-3-3-3-3-3- x2
E|--------------------------


Refrain: 

"It hurts"
G|-----------------------------------------
D|-----------------------------------------
A|---------1-1-3-3-3-3-1-1---------6-6-1-1-
E|-4-4-4-4-----------------4-4-4-4---------


Chorus: 

"I've been far away"
G|-------------------------------
D|-------------------------------
A|-3-3-3-3---------1-1-1-1-1-1-1- x2
E|---------4-4-4-4---------------


"Heart Burst Into Fire"
G|-------------------------------
D|-------------------------------
A|-3-3-3-3---------1-1-1-1-----1- x2
E|---------4-4-4-4----------4----


Bridge:

"Now that I've grown so lonely"
G|---------------------------------------
D|---------------------------------------
A|-3-----1--3-----1--------1--3-----1--6-
E|----4--------4-----4--4--------4-------


Outro:

"I'm coming Home"
G|---
D|---
A|-6-
E|---

G|--------------------------
D|--------------------------
A|-6-6-6-6-6-6--3-3-3-3-3-3- x2
E|--------------------------

"Heart bursts into fire!!!"
G|---------
D|---------
A|----1--3-
E|-4-------

            
            
Suggest correction
Creating personal tab
Creating personal tab
You can edit any tab online and save it as your Personal.

You can edit, replace or remove any tab part or add personal notes – all changes will be seen only by you.

Personal tabs can be accessed anytime from any device, even offline.
Learn more »
comments
print report bad tab
4 comments total. Showing first comments.
+1 reply
therealryu 41 Dec 04, 2008 08:00 AM

deffinately drop C

0 reply
guitar_gringo_ 10 Dec 09, 2008 05:01 PM

Think that shlock is good....listen to this girl.....calling her hendrix meets joni mitchell....it's unbelievable..messing with my mind,,,,AHHHHHH. got to hear it to believe it.

http://www.myspace.com/chrissylovingood

http://www.myspace.com/chrissylovingood
http://www.myspace.com/chrissylovingood
http://www.myspace.com/chrissylovingood
http://www.myspace.com/chrissylovingood

-1 reply
royturner23 1,507 Dec 21, 2008 04:14 AM

I hate these standard tuning bulls**t tabs

guest
You may want to rate the tab now too:
select rating
Wanna post a correction for this tab? Suggest correction