Oops, an error
Loading. Please wait.

Just Another Star tab

version 2
version 2

Whole song

Interactive

11,489 views 3 this week
4 commentsread comments
1 2 3 4 5
x 7
add to favorites
×
Save as Personal and add changes to this tab that will be seen only by you. Learn more ›
×
You can save this tab as Personal to edit and correct it or add notes. All changes will be seen only by you. Learn more »
launch autoscroll
font size
0
reset
how to read this tab
guitar tuner
edit
Autoscroll
slow
fast
+/-
esc
set tempo
stop
Gtr I
  PM|    PM   PM   PM      PM   PM   PM ~~
|--------------------|---------------------|
|--------------------|---------------------|
|-----14---12---14---|-15----14---12---14--|
|-0-0----0----0----0-|-----0----0----0-----|
|--------------------|---------------------|
|--------------------|---------------------|

| Gtr II
| PM|    PM   PM   PM      PM   PM   PM ~~
|--------------------|---------------------|
|--------------------|---------------------|
|--------------------|---------------------|
|-----15---14---15---|-17----15---14---15--|
|-0-0----------------|---------------------|
|-0-0----0----0----0-|-----0----0----0-----|

|--------------------|---------------------|
|--------------------|---------------------|
|--------------------|---------------------|
|-0------------------|-(0)-----------------|
|-0------------------|-(0)-----------------|
|-0------------------|-(0)-----------------|

  PM|    PM   PM   PM      PM   PM   PM ~~
|--------------------|---------------------|
|--------------------|---------------------|
|-----14---12---14---|-15----14---12---14--|
|-0-0----0----0----0-|-----0----0----0-----|
|--------------------|---------------------|
|--------------------|---------------------|

| PM|    PM   PM   PM      PM   PM   PM ~~
|--------------------|---------------------|
|--------------------|---------------------|
|--------------------|---------------------|
|-----15---14---15---|-17----15---14---15--|
|-0-0----------------|---------------------|
|-0-0----0----0----0-|-----0----0----0-----|

|--------------------|---------------------|
|--------------------|---------------------|
|--------------------|---------------------|
|-0------------------|-(0)-----------------|
|-0------------------|-(0)-----------------|
|-0------------------|-(0)-----------------|
  PM|    PM   PM   PM      PM   PM   PM ~~
|--------------------|---------------------|
|--------------------|---------------------|
|-----14---12---14---|-15----14---12---10--|
|-0-0----0----0----0-|-----0----0----0-----|
|--------------------|---------------------|
|--------------------|---------------------|
  PM|    PM   PM   PM
|--------------------|------------||
|--------------------|-15b16.5----||
|-----14---12---14---|-17---------||
|-0-0----0----0----0-|------------||
|--------------------|------------||
|--------------------|------------||
| PM|    PM   PM   PM      PM   PM   PM ~~
|--------------------|---------------------|
|--------------------|---------------------|
|--------------------|---------------------|
|-----15---14---15---|-17----15---14-------|
|-0-0----------------|-----------------15--|
|-0-0----0----0----0-|-----0----0----0-----|

  PM|    PM   PM   PM
|--------------------|------------||
|--------------------|-15---------||
|--------------------|-17b18.5----||
|-----15---14---15---|------------||
|-0-0----------------|------------||
|-0-0----0----0----0-|------------||


|--------------------|---------------------|
|--------------------|---------------------|
|-5------------------|-(5)-----------------|
|-5------------------|-(5)-----------------|
|-3------------------|-(3)-----------------|
|--------------------|---------------------|

|--------------------|------------||
|--------------------|------------||
|-3------------------|------------||
|-3------------------|--0---------||
|-1------------------|--0---------||
|--------------------|--0---------||

 PM|    PM   PM   PM     PM   PM   PM ~~
|--------------------|--------------------|
|--------------------|--------------------|
|-----14---12---14---|-15---14---12---14--|
|-0-0----0----0----0-|----0----0----0-----|
|--------------------|--------------------|
|--------------------|--------------------|
|
| PM|    PM   PM   PM     PM   PM   PM ~~
|--------------------|--------------------|
|--------------------|--------------------|
|--------------------|--------------------|
|-----15---14---15---|-17---15---14---15--|
|-0-0----------------|--------------------|
|-0-0----0----0----0-|----0----0----0-----|
|
| PM
|--------------------|--------------------|
|--------------------|--------------------|
|--------------------|--------------------|
|---0----------------|--------------------|
|-0-0----------------|--------------------|
|-0-0----------------|--------------------|


  PM|    PM   PM   PM     PM   PM   PM ~~
|--------------------|---------------------|
|--------------------|---------------------|
|-----14---12---14---|-15---14---12---14---|
|-0-0----0----0----0-|----0----0----0------|
|--------------------|---------------------|
|--------------------|---------------------|
|
| PM|    PM   PM   PM     PM   PM   PM ~~
|--------------------|---------------------|
|--------------------|---------------------|
|--------------------|---------------------|
|-----15---14---15---|-17---15---14---15---|
|-0-0----------------|---------------------|
|-0-0----0----0----0-|----0----0----0------|
|
| PM
|--------------------|---------------------|
|--------------------|---------------------|
|--------------------|---------------------|
|---0----------------|---------------------|
|-0-0----------------|---------------------|
|-0-0----------------|---------------------|

  PM|    PM   PM   PM
|--------------------|------------||
|--------------------|-15b16.5----||
|-----14---12---14---|-17---------||
|-0-0----0----0----0-|------------||
|--------------------|------------||
|--------------------|------------||
| PM|    PM   PM   PM      PM   PM   PM ~~
|--------------------|---------------------|
|--------------------|---------------------|
|--------------------|---------------------|
|-----15---14---15---|-17----15---14-------|
|-0-0----------------|-----------------15--|
|-0-0----0----0----0-|-----0----0----0-----|

  PM|    PM   PM   PM
|--------------------|------------||
|--------------------|-15---------||
|--------------------|-17b18.5----||
|-----15---14---15---|------------||
|-0-0----------------|------------||
|-0-0----0----0----0-|------------||


|--------------------|---------------------|
|--------------------|---------------------|
|-5------------------|-(5)-----------------|
|-5------------------|-(5)-----------------|
|-3------------------|-(3)-----------------|
|--------------------|---------------------|

|--------------------|------------||
|--------------------|------------||
|-3------------------|------------||
|-3------------------|--0---------||
|-1------------------|--0---------||
|--------------------|--0---------||

Verse
  D5
  PM-------------------------|      PM---------------------------------|
|----------------|----------------|----------------|-------------------|
|----------------|----------------|----------------|-------------------|
|----------------|----------------|----------------|-------------------|
|----------------|-------------0--|----------------|-------------0-----|
|-0-0-----0-0----|-0-0-----0-0-0--|-0-0-----0-0----|-0-0-----0-0-0-----|
|-0-0-----0-0----|-0-0-----0-0-0--|-0-0-----0-0----|-0-0-----0-0-0-----|
|
| PM|     PM|      PM|     PM|      PM|     PM|      PM|     PM|
|----------------|----------------|----------------|-----------------|
|----------------|----------------|----------------|-----------------|
|-----10------9--|-----12------9--|-----10------9--|-----12------9---|
|------0------0--|------0------0--|------0------0--|------0------0---|
|-0-0-----0-0----|-0-0-----0-0----|-0-0-----0-0----|-0-0-----0-0-----|
|-0-0-----0-0----|-0-0-----0-0----|-0-0-----0-0----|-0-0-----0-0-----|


  D5
  PM-------------------------|      PM-----------------------------------|
|----------------|----------------|----------------|---------------------|
|----------------|----------------|----------------|---------------------|
|----------------|----------------|----------------|---------------------|
|----------------|-------------0--|----------------|-------------0-0-----|
|-0-0-----0-0----|-0-0-----0-0-0--|-0-0-----0-0----|-0-0-----0-0-0-0-----|
|-0-0-----0-0----|-0-0-----0-0-0--|-0-0-----0-0----|-0-0-----0-0-0-0-----|
|
| PM|     PM|      PM|     PM|      PM|     PM|      PM|     PM|
|----------------|----------------|----------------|------------------||
|----------------|----------------|----------------|------------------||
|-----10------9--|-----12------9--|-----10------9--|-----12------9----||
|------0------0--|------0------0--|------0------0--|------0------0----||
|-0-0-----0-0----|-0-0-----0-0----|-0-0-----0-0----|-0-0-----0-0------||
|-0-0-----0-0----|-0-0-----0-0----|-0-0-----0-0----|-0-0-----0-0------||


 Bridge

      PM    PM      PM    PM              PM    PM      PM     PM
|-----------------|-----------------|-----------------|-------------------|
|-----------------|-----------------|-----------------|-------------------|
|-----------------|-----------------|-----------------|-------------------|
|-----------------|-----------------|-----------------|-------------------|
|-1p0---1p0---1p0-|---1p0---1p0-1p0-|-1p0---1p0---1p0-|---1p0----1p0-1p0--|
|-1p0-0-1p0-0-1p0-|-0-1p0-0-1p0-1p0-|-1p0-0-1p0-0-1p0-|-0-1p0--0-1p0-1p0--|
|
|-----------------|-----------------|-----------------|-------------------|
|-----------------|-----------------|-----------------|-------------------|
|-----------------|-----------------|-----------------|-------------------|
|-----------------|-----------------|-----------------|-1S==8\------------|
|-----------------|-----------------|-----------------|-1S==8\------------|
|-----------------|-----------------|-----------------|-1S==8\------------|

  Gtrs I, II
      PM    PM      PM    PM              PM    PM
|-----------------|-----------------|-----------------|------||
|-----------------|-----------------|-----------------|------||
|-----------------|-----------------|-----------------|------||
|-----------------|-----------------|-------------1-1-|------||
|-1p0---1p0---1p0-|---1p0---1p0-1p0-|-1p0---1p0---1-1-|------||
|-1p0-0-1p0-0-1p0-|-0-1p0-0-1p0-1p0-|-1p0-0-1p0-0-1-1-|------||

Bridge To Chorus
  Bb5
  Gtrs I, II
  PM----------------------------------|
|-----------------|-------------------|
|-----------------|-------------------|
|-----------------|-------------------|
|-----------------|-------------------|
|-8-8-8-8-8-8-8-8-|-8-8-8-8-8-8-8-8---|
|-8-8-8-8-8-8-8-8-|-8-8-8-8-8-8-8-8---|


  C5
 ------------------------------------------------------|
|-------------------------|----------------------------|
|-------------------------|----------------------------|
|-------------------------|----------------------------|
|-------------------------|----------------------------|
|-10-10-10-10-10-10-10-10-|-10-10-10-10-10-10-10-10----|
|-10-10-10-10-10-10-10-10-|-10-10-10-10-10-10-10-10----|


  Bb5                                 C5                F5          G5
  PM------------------------------------------------------------------------|
|-----------------|-----------------|----------------------|----------------|
|-----------------|-----------------|----------------------|----------------|
|-----------------|-----------------|----------------------|----------------|
|-----------------|-----------------|-10-10-10-10-10-10-3--|-(3)----5-------|
|-8-8-8-8-8-8-8-8-|-8-8-8-8-8-8-8-8-|-10-10-10-10-10-10-3--|-(3)----5-------|
|-8-8-8-8-8-8-8-8-|-8-8-8-8-8-8-8-8-|-10-10-10-10-10-10-3--|-(3)----5-------|


 Chorus
  Bb5
  Gtr I
         PM
|-------------------------|---------------------------|
|-------------------------|---------------------------|
|-------------------------|---------------------------|
|--8--------8-----8--8--8-|--8--8--8--8-8----8----8-8-|
|--8-----8--8-----8--8--8-|--8--8--8--8-8----8----8-8-|
|--8-----8--8-----8--8--8-|--8--8--8--8-8----8----8-8-|
|
| Gtr II
|-------------------------|---------------------------|
|-------------------------|---------------------------|
|-17p15-15-19p15-15-17p15-|-15-19p15-15-9h10p==9------|
|-------------------------|----------------------10---|
|-------------------------|---------------------------|
|-------------------------|---------------------------|


  C5
         PM
|-------------------------|--------------------------------|
|-------------------------|--------------------------------|
|-------------------------|--------------------------------|
|-10-------10----10-10-10-|-10-10-10-10-10----10---10-10---|
|-10----10-10----10-10-10-|-10-10-10-10-10----10---10-10---|
|-10----10-10----10-10-10-|-10-10-10-10-10----10---10-10---|
|
|-------------------------|--------------------------------|
|-------------------------|--------------------------------|
|-17p15-15-19p15-15-17p15-|-15-19p15-15--9h10p===9---------|
|-------------------------|------------------------10------|
|-------------------------|--------------------------------|
|-------------------------|--------------------------------|


  Bb5
         PM
|-------------------------|---------------------------|
|-------------------------|---------------------------|
|-------------------------|---------------------------|
|--8--------8-----8--8--8-|--8--8--8--8-8----8----8-8-|
|--8-----8--8-----8--8--8-|--8--8--8--8-8----8----8-8-|
|--8-----8--8-----8--8--8-|--8--8--8--8-8----8----8-8-|
|
| Gtr II
|-------------------------|---------------------------|
|-------------------------|---------------------------|
|-17p15-15-19p15-15-17p15-|-15-19p15-15-9h10p==9------|
|-------------------------|----------------------10---|
|-------------------------|---------------------------|
|-------------------------|---------------------------|


  C5                F5                   G5
|-------------------------|---------------------------||
|-------------------------|---------------------------||
|-------------------------|---------------------------||
|-10-10-10-10-10-10--3----|-(3)-----------5-----------||
|-10-10-10-10-10-10--3----|-(3)-----------5-----------||
|-10-10-10-10-10-10--3----|-(3)-----------5-----------||
|
|-------------------------|---------------------------||
|-------------------------|---------------------------||
|-17p15-15-19p15-15-17p15-|-15--17p15-15-17p15-17p15--||
|-------------------------|---------------------------||
|-------------------------|---------------------------||
|-------------------------|---------------------------||


   2nd Bridge
    D5              Eb5 D5              F5
    Gtrs I, II
      PM----------|     PM  PM---------------|
||--------------------|----------------------|
||o-------------------|----------------------|
||--------------------|----------------------|
||--7---------------8-|---7-------------10---|
||o-5-0-0-0-0-0-0-0-6-|-0-5-0-0-0-0-0-0--8---|
||----0-0-0-0-0-0-0---|-0---0-0-0-0-0-0------|


  D5              Eb5 D5    C5D5Bb5
  PM  PM---------------------------------|     PM  PM  PM
|-------------------|--------------------|
|-------------------|----------------o---|
|-------------------|--------------------|
|---7-------------8-|---7---5---3--------|
|-0-5-0-0-0-0-0-0-6-|-0-5-0-3-0-1----o---|
|-0---0-0-0-0-0-0---|-0---0---0----------|


    D5                  Eb5  D5                  F5
       PM------------|       PM    PM-----------------|
||-------------------------|--------------------------|
||o------------------------|--------------------------|
||-------------------------|--------------------------|
||--7--------------------8-|----7----------------10---|
||o-5--0--0--0--0--0--0--6-|-0--5--0--0--0--0--0--8---|
||-----0--0--0--0--0--0----|-0-----0--0--0--0--0------|
|
|   Gtr IV
||-------------------------|------------------------|
||o------------------------|------------------------|
||-------------------------|------------------------|
||----13-12-10-------10----|---13-12-10-------10----|
||o------------12-13----12-|------------12-13----12-|
||-------------------------|------------------------|


  D5                  Eb5 D5         C5D5     Bb5
  PM    PM---------|       PM-------------------------|      PM   PM
|-----------------------|-----------------------------|
|-----------------------|-------------------------o---|
|-----------------------|-----------------------------|
|----7----------------8-|--------7---5--------3-------|
|-0--5--0--0--0--0--0-6-|--0-----5-0-3--0-----1---o---|
|-0-----0--0--0--0--0---|--0-------0----0-------------|
|
|-----------------------|--------------------------||
|-----------------------|-------------------------o||
|-----------------------|--------------------------||
|---13-12-10-------10---|-12tr13-------------------||
|------------12-13------|--------------12tr13-----o||
|-----------------------|--------------------------||


 Interlude
  Bb5
  Gtr I
  >
|----------|------------|------------|-----------------|
|----------|------------|------------|-----------------|
|----------|------------|------------|-----------------|
|-8--------|-(8)--------|-(8)--------|-(8)------(8)\---|
|-8--------|-(8)--------|-(8)--------|-(8)------(8)\---|
|-8--------|-(8)--------|-(8)--------|-(8)------(8)\---|
|
| Gtr II
| >
|----------|------------|------------|-----------------|
|----------|------------|------------|-----------------|
|----------|------------|------------|-----------------|
|-8--------|-(8)--------|-(8)--------|-(8)------(8)\---|
|-8--------|-(8)--------|-(8)--------|-(8)------(8)\---|
|-8--------|-(8)--------|-(8)--------|-(8)------(8)\---|


  Bb5
  >
|------------|--------------|--------------|--------------|
|------------|--------------|--------------|--------------|
|------------|--------------|--------------|--------------|
|-8----------|-(8)----------|-(8)----------|-(8)----------|
|-8----------|-(8)----------|-(8)----------|-(8)----------|
|-8----------|-(8)----------|-(8)----------|-(8)----------|
|
| >
|------------|--------------|--------------|--------------|
|------------|--------------|--------------|--------------|
|------------|--------------|--------------|--------------|
|-8---8---8--|-(8)-8---8----|--8----8---8--|-(8)-8---8----|
|-8---8---8--|-(8)-8---8----|--8----8---8--|-(8)-8---8----|
|-8---8---8--|-(8)-8---8----|--8----8---8--|-(8)-8---8----|


  Bb5
  Gtrs I, II
  PM--------------------------------------------------------|
|-------------|-------------|-------------|-----------------|
|-------------|-------------|-------------|-----------------|
|-------------|-------------|-------------|-----------------|
|-------------|-------------|-------------|-----------------|
|-8--8--8--8--|-8--8--8--8--|-8--8--8--8--|-8--8--8-8-8-----|
|-8--8--8--8--|-8--8--8--8--|-8--8--8--8--|-8--8--8-8-8-----|


  C5                                              F5          G5
   PM-----------------------------------------------------------------|
|-----------------|-----------------|----------------|----------------|
|-----------------|-----------------|----------------|----------------|
|-----------------|-----------------|----------------|----------------|
|-----------------|-----------------|-10--10--10--3--|-(3)----5-------|
|-10--10--10--10--|-10--10--10--10--|-10--10--10--3--|-(3)----5-------|
|-10--10--10--10--|-10--10--10--10--|-10--10--10--3--|-(3)----5-------|


   2nd Chorus
    Bb5
    Gtr I
           PM
||--------------------------|---------------------------|
||o-------------------------|---------------------------|
||--------------------------|---------------------------|
||---8--------8-----8--8--8-|--8--8--8--8-8----8----8-8-|
||o--8-----8--8-----8--8--8-|--8--8--8--8-8----8----8-8-|
||---8-----8--8-----8--8--8-|--8--8--8--8-8----8----8-8-|
|
|   Gtr II
||--------------------------|---------------------------|
||o-------------------------|---------------------------|
||--17p15-15-19p15-15-17p15-|-15-19p15-15-9h10p==9------|
||--------------------------|----------------------10---|
||o-------------------------|---------------------------|
||--------------------------|---------------------------|


  C5
         PM
|-------------------------|-------------------------------|
|-------------------------|-------------------------------|
|-------------------------|-------------------------------|
|-10-------10----10-10-10-|-10-10-10-10-10----10---10-10--|
|-10----10-10----10-10-10-|-10-10-10-10-10----10---10-10--|
|-10----10-10----10-10-10-|-10-10-10-10-10----10---10-10--|
|
|-------------------------|-------------------------------|
|-------------------------|-------------------------------|
|-17p15-15-19p15-15-17p15-|-15-19p15-15--9h10p===9--------|
|-------------------------|------------------------10-----|
|-------------------------|-------------------------------|
|-------------------------|-------------------------------|


  Bb5
         PM
|-------------------------|---------------------------|
|-------------------------|---------------------------|
|-------------------------|---------------------------|
|--8--------8-----8--8--8-|--8--8--8--8-8----8----8-8-|
|--8-----8--8-----8--8--8-|--8--8--8--8-8----8----8-8-|
|--8-----8--8-----8--8--8-|--8--8--8--8-8----8----8-8-|
|
|-------------------------|---------------------------|
|-------------------------|---------------------------|
|-17p15-15-19p15-15-17p15-|-15-19p15-15-9h10p==9------|
|-------------------------|----------------------10---|
|-------------------------|---------------------------|
|-------------------------|---------------------------|


  C5                F5             G5
|-------------------------|----------------||
|-------------------------|---------------o||
|-------------------------|----------------||
|-10-10-10-10-10-10--3----|-(3)-----5------||
|-10-10-10-10-10-10--3----|-(3)-----5-----o||
|-10-10-10-10-10-10--3----|-(3)-----5------||
|
|-------------------------|----------------||
|-------------------------|---------------o||
|-17p15-15-19p15-15-17p15-|-17\----17\-----||
|-------------------------|----------------||
|-------------------------|---------------o||
|-------------------------|----------------||


  N.C.
  Gtr V
  TP TP TP TP   TP TP TP TP
|-------------|-------------||
|-------------|-------------||
|-------------|-------------||
|-------------|-------------||
|-xS=xS=xS=xS=|=xS=xS=xS=x--||
|-xS=xS=xS=xS=|=xS=xS=xS=x--||


   2nd Bridge Cont.
    D5              Eb5 D5              F5
    Gtrs I, II
      PM----------|     PM  PM---------------|
||--------------------|----------------------|
||o-------------------|----------------------|
||--------------------|----------------------|
||--7---------------8-|---7-------------10---|
||o-5-0-0-0-0-0-0-0-6-|-0-5-0-0-0-0-0-0--8---|
||----0-0-0-0-0-0-0---|-0---0-0-0-0-0-0------|


  D5              Eb5 D5    C5D5Bb5
  PM  PM---------------------------------|     PM  PM  PM
|-------------------|--------------------|
|-------------------|----------------o---|
|-------------------|--------------------|
|---7-------------8-|---7---5---3--------|
|-0-5-0-0-0-0-0-0-6-|-0-5-0-3-0-1----o---|
|-0---0-0-0-0-0-0---|-0---0---0----------|


    D5                  Eb5  D5                  F5
       PM------------|       PM    PM-----------------|
||-------------------------|--------------------------|
||o------------------------|--------------------------|
||-------------------------|--------------------------|
||--7--------------------8-|----7----------------10---|
||o-5--0--0--0--0--0--0--6-|-0--5--0--0--0--0--0--8---|
||-----0--0--0--0--0--0----|-0-----0--0--0--0--0------|
|
|   Gtr IV
||-------------------------|------------------------|
||o------------------------|------------------------|
||-------------------------|------------------------|
||----13-12-10-------10----|---13-12-10-------10----|
||o------------12-13----12-|------------12-13----12-|
||-------------------------|------------------------|


  D5                  Eb5 D5         C5D5     Bb5
  PM    PM---------|       PM-------------------------|      PM   PM
|-----------------------|-----------------------------|
|-----------------------|-------------------------o---|
|-----------------------|-----------------------------|
|----7----------------8-|--------7---5--------3-------|
|-0--5--0--0--0--0--0-6-|--0-----5-0-3--0-----1---o---|
|-0-----0--0--0--0--0---|--0-------0----0-------------|
|
|-----------------------|--------------------------||
|-----------------------|-------------------------o||
|-----------------------|--------------------------||
|---13-12-10-------10---|-12tr13-------------------||
|------------12-13------|--------------12tr13-----o||
|-----------------------|--------------------------||


 Outro
  D5  N.C.                             D5
  Gtr I
  PM|  TP  TP  TP    TP  TP  TP  TP    PM---------------------|
|-----------------|------------------|---------------|--------|
|-----------------|------------------|---------------|--------|
|-----14--12--14--|-15--14--12--14\--|---------------|--------|
|-----------------|------------------|---------------|--------|
|-0-0-------------|------------------|-0-0--0-0--0-0-|--------|
|-0-0-------------|------------------|-0-0--0-0--0-0-|--------|
|
| Gtr II
| PM|  TP  TP  TP    TP  TP  TP  TP    PM---------------------|
|-----------------|------------------|---------------|--------|
|-----------------|------------------|---------------|--------|
|-----10---9--10--|-12--10---9--10\--|---------------|--------|
|-----------------|------------------|---------------|--------|
|-0-0-------------|------------------|-0-0--0-0--0-0-|--------|
|-0-0-------------|------------------|-0-0--0-0--0-0-|--------|


----------------------------------------------------------------------------


Tablature Legend
----------------
 h   - hammer-on
 p   - pull-off
 b   - bend
 pb  - pre-bend
 r   - bend release (if no number after the r, then release immediately)
 /\  - slide into or out of (from/to "nowhere")
 s   - legato slide
 S   - shift slide
 - natural harmonic
[n]  - artificial harmonic
n(n) - tapped harmonic
 ~   - vibrato
 tr  - trill
 T   - tap
 TP  - trem. picking
 PM  - palm muting
\n/  - tremolo bar dip; n = amount to dip
 \n  - tremolo bar down
 n/  - tremolo bar up
/n\  - tremolo bar inverted dip
 =   - hold bend; also acts as connecting device for hammers/pulls
 <> - volume swell (louder/softer)
 x   - on rhythm slash represents muted slash
 o   - on rhythm slash represents single note slash

Misc Legend
-----------
 |  - bar
||  - double bar
||o - repeat start
o|| - repeat end
*|  - double bar (ending)
 :  - bar (freetime)
 $  - Segno
 &  - Coda
Tempo markers -  = BPM(8/16=s8/s16), where s8 = swing 8ths, s16 = swing 16ths

            
            
Suggest correction
Creating personal tab
Creating personal tab
You can edit any tab online and save it as your Personal.

You can edit, replace or remove any tab part or add personal notes – all changes will be seen only by you.

Personal tabs can be accessed anytime from any device, even offline.
Learn more »
comments
print report bad tab
4 comments total. Showing first comments. show 1 bad comment
0 reply
guitar_freak91 1,100 May 07, 2006 05:57 AM

Bam_HIM_Bassist,
it wasnt drop D, and Drop C, would mean you just drop the low string down to C. the guitar was tuned down to C. the whole ENTIRE guitar. it may seem you that it was drop D, because its pretty much the same, only every note on the guitar is one full step lower. meaning the tuning was not:
E D
B A
G but it was: F
D C
A G
D C

0 reply
guitar_freak91 1,100 May 07, 2006 05:58 AM

well. that turned out bad

the tuning is
D
A
F
C
G
C
not
E
B
G
D
A
D

sorry for that^

guest
You may want to rate the tab now too:
select rating
Wanna post a correction for this tab? Suggest correction