Oops, an error
Loading. Please wait.
We have an official Last To Know tab made by UG professional guitarists. Check out the tab »
×
8,103 views 6 this week
no commentswrite comment
1 2 3 4 5
x 5
add to favorites
×
Save as Personal and add changes to this tab that will be seen only by you. Learn more ›
×
You can save this tab as Personal to edit and correct it or add notes. All changes will be seen only by you. Learn more »
launch autoscroll
font size
0
reset
how to read this tab
guitar tuner
edit
Autoscroll
slow
fast
+/-
esc
set tempo
stop
Author
Tabbed by: BurnSami

Song: Last To Know
Artist: Bullet For My Valentine
Album: Scream Aim Fire

Tuning: DGCFAD

Hope you enjoy it!

Updated 21.04.2009

Intro/Verse riff:

Guitar 1
            PM PM PM PM PM PM         PM PM PM PM PM PM
D||--------------------------------------------------------------------------||
A||--------------------------------------------------------------------------||
F||---------------------------5h7p5---4--5--4-----------------------------2--||
C||--5h7p5--4--5--4----------------------------7--5--4---------2---4---5-----||
G||------------------7--5--7-------------------------------------------------||
D||--------------------------------------------------------------------------||

Guitar 2
            PM PM PM PM PM PM         PM  PM PM  PM  PM PM
D||--------------------------------------------------------------------------||
A||--------------------------------------------------------------------------||
F||--4h5p4-----4---------------9h109------9---------------------------4---5--||
C||---------7-----7--5--4--5----------12-----12--10--9--7-----5---7----------||
G||--------------------------------------------------------------------------||
D||--------------------------------------------------------------------------||

Guitar 1

          PM PM PM PM PM PM        PM PM PM PM PM PM
D||--------------------------------------------------||
A||--------------------------------------------------||
F||--------------------------------------------------||
C||--------------------------------------------------||
G||--2----------------------2h3p2-----2--------------||
D||--0----0--0--0--0--0--0---------5-----5--3--2--0--||

          PM PM PM PM PM PM        PM PM PM PM PM PM
D||--------------------------------------------------||
A||--------------------------------------------------||
F||--------------------------------------------------||
C||--------------------------------------------------||
G||--2----------------------2h3p2-----2--------------||
D||--0----0--0--0--0--0--0---------5-----5--3--2--0--||

          PM PM PM PM    PM PM PM    PM PM    PM         PM PM PM PM PM
D||------------------------------------------------------------------------||
A||------------------------------------------------------------------------||
F||--7----------------7-----------7--------7-----7--5-------------------5--||
C||--7----7--7--7--7--7--7--7--7--7--7--7--7--7--5--5----5--5--5--5--5--5--||
G||--5----5--5--5--5--5--5--5--5--5--5--5--5--5--5--3----3--3--3--3--3--3--||
D||------------------------------------------------------------------------||

            PM PM PM PM PM
D||------------------------||
A||------------------------||
F||------------------------||
C||--5h7p5--4--5--4--------||
G||------------------7--5--||
D||------------------------||

Guitar 2

D||---------------------||
A||---------------------||
F||-----------7----5----||
C||--2--------7----5----||
G||--2--------5----3----||
D||--0------------------||

            PM PM PM PM PM
D||------------------------||
A||------------------------||
F||--4h5p4-----4-----------||
C||---------7-----7--5--4--||
G||------------------------||
D||------------------------||


Verse:

Both guitars

          PM PM PM PM PM PM        PM PM PM PM PM PM
D||--------------------------------------------------||
A||--------------------------------------------------||
F||--------------------------------------------------||
C||--------------------------------------------------||
G||--2----------------------2h3p2-----2--------------||
D||--0----0--0--0--0--0--0---------5-----5--3--2--0--||

          PM PM PM PM PM PM        PM PM PM PM PM PM
D||--------------------------------------------------||
A||--------------------------------------------------||
F||--------------------------------------------------||
C||--------------------------------------------------||
G||--2----------------------2h3p2-----2--------------||
D||--0----0--0--0--0--0--0---------5-----5--3--2--0--||

          PM PM PM PM    PM PM PM    PM PM    PM         PM PM PM PM PM
D||------------------------------------------------------------------------||
A||------------------------------------------------------------------------||
F||--7----------------7-----------7--------7-----7--5-------------------5--||
C||--7----7--7--7--7--7--7--7--7--7--7--7--7--7--5--5----5--5--5--5--5--5--||
G||--5----5--5--5--5--5--5--5--5--5--5--5--5--5--5--3----3--3--3--3--3--3--||
D||------------------------------------------------------------------------||

            PM PM PM PM PM                 PM PM PM PM PM
D||------------------------||  D||------------------------||
A||------GUitar-1----------||  A||-------Guitar-2---------||
F||------------------------||  F||--4h5p4-----4-----------||
C||--5h7p5--4--5--4--------||  C||---------7-----7--5--4--||
G||------------------7--5--||  G||------------------------||
D||------------------------||  D||------------------------||

Repeat whole thing 2x


Pre-Chorus:

Guitar 1

             PM PM PM    PM PM PM    PM PM    PM                     PM PM PM
D||----------------------------------------------||     D||----------------------||
A||----------------------------------------------||     A||----------------------||
F||-------0-----------0-----------0--------0-----||     F||-------0-----------0--||
C||--4s5--5--5--5--5--5--5--5--5--5--5--5--5--5--|| 3x  C||--4s5--5--5--5--5--5--||
G||--5s7--7--7--7--7--7--7--7--7--7--7--7--7--7--||     G||--5s7--7--7--7--7--7--||
D||----------------------------------------------||     D||----------------------||

     PM PM       PM PM
D||-----------------------||
A||-----------------------||
F||--------0-----------0--||
C||-----4-----4-----4-----||
G||--3-----------3--------||
D||-----------------------||

Guitar 2

D||-----------||
A||-----------||
F||---~-------||
C||--2~~~~----||
G||--2~~~~----||
D||--0~~~~----||

     PM PM       PM PM
D||-----------------------||
A||-----------------------||
F||--------0-----------0--||
C||-----4-----4-----4-----||
G||--3-----------3--------||
D||-----------------------||


Chorus:

Both GUitars

(not the exact strumming pattern but it's
 easy to figure out how to play it, adn tremolo pick those PM's)

             PM PM PM   PM PM PM    PM PM
D||-------------------------------------------||
A||-------------------------------------------||
F||--7s9--9-----------9-----------9--------9--||
C||--7s9--9-----------9-----------9--------9--||
G||--5s7--7--7--7--7--7--7--7--7--7--7--7--7--||
D||-------------------------------------------||

         PM  PM PM     PM PM                 PM  PM PM      PM  PM  PM
D||-----------------------------||  D||---------------------------------||
A||-----------------------------||  A||--12--10---------13--------------||
F||--12--11---------14--12--11--||  F||----------12--9------12--11--10--||
C||----------12--9--------------||  C||---------------------------------||
G||-----------------------------||  G||---------------------------------||
D||-----------Guitar-1----------||  C||------------Guitar-2-------------||

Both guitars
             PM PM PM   PM PM PM    PM PM
D||-------------------------------------------||
A||-------------------------------------------||
F||--7s9--9-----------9-----------9--------9--||
C||--7s9--9-----------9-----------9--------9--||
G||--5s7--7--7--7--7--7--7--7--7--7--7--7--7--||

D||-----------------------||
A||-----------------------||
F||--5----9----7----12----||
C||--5----9----7----12----||
G||--3----7----5----10----||
D||-----------------------||


Intro/Verse
Pre-Chorus
Chorus


Break:

Guitar 1

         PM    PM      PM PM    PM      PM
D||---------------------------------------------||
A||---------------------------------------------||
F||---------------------------------------------||
C||---------2-----2p0--------0-----0h2----------||
G||--3---3-----3-------3--3-----3-------3--3~---||
D||---------------------------------------------||

         PM    PM      PM PM    PM
D||-------------------------------------------||
A||-------------------------------------------||
F||-------------------------------------------||
C||---------2-----2p0--------0-----0h2--------||
G||--3---3-----3-------3--3-----3-------5--2--||
D||-------------------------------------3--0--||

         PM    PM      PM PM    PM
D||-------------------------------------------||
A||-------------------------------------------||
F||-------------------------------------------||
C||---------5-----5p4--------4-----4h5--------||
G||-------------------------------------------||
D||--0---0-----0-------0--0-----0-------0--0--||

         PM    PM      PM PM    PM
D||-------------------------------------------||
A||-------------------------------------------||
F||-------------------------------------------||
C||---------5-----5p4--------4-----5h7--7--5--||
G||-------------------------------------5--3--|| 2x
D||--0---0-----0-------0--0-----0-------------||

Guitar 2

         PM    PM      PM PM    PM      PM
D||---------------------------------------------||
A||---------------------------------------------||
F||---------------------------------------------||
C||---------5-----5p4--------4-----4h5----------||
G||--3---3-----3-------3--3-----3-------3--3----||
D||---------------------------------------------||

        PM      PM PM    PM
D||------------------------------------||
A||------------------------------------||
F||------------------------------------||
C||--5-----5p4--------4-----4h5--------||
G||-----3-------3--3-----3-------5--2--||
D||------------------------------3--0--||

         PM    PM      PM PM    PM
D||-------------------------------------------||
A||-------------------------------------------||
F||---------4-----4p2--------2-----2h4--------||
C||-------------------------------------------||
G||-------------------------------------------||
D||--0---0-----0-------0--0-----0-------0--0--||

         PM    PM      PM PM    PM
D||-------------------------------------------||
A||-------------------------------------------||
F||---------4-----4p2--------2-----2h4--------||
C||-------------------------------------7--5--||
G||-------------------------------------5--3--||  2x
D||--0---0-----0-------0--0-----0-------------||


Solo:

D||-------------15--14------14------------------------------||
A||--/17br~-------------15------15--------------------------||
F||---------------------------------14---12----/9~----/11~--||
C||---------------------------------------------------------||
G||---------------------------------------------------------||
C||---------------------------------------------------------||

D||--15--14--------------14--17--17br------22br--20--19------19-----------||
A||----------15------15----------------19----------------20-----20-19-17--||
F||--------------14-------------------------------------------------------||
C||-----------------------------------------------------------------------||
G||-----------------------------------------------------------------------||
D||-----------------------------------------------------------------------||

D||--17--19--20--17--19--20--17--20--||
A||----------------------------------||
F||----------------------------------||
C||----------------------------------||
G||----------------------------------||
D||----------------------------------||

D||--15--17--19--15--17--19--15--19--||
A||----------------------------------||
F||----------------------------------||
C||----------------------------------||
G||----------------------------------||
D||----------------------------------||

D||--14--15--17--14--15--17--14--17--||
A||----------------------------------||
F||----------------------------------||
C||----------------------------------||
G||----------------------------------||
D||----------------------------------||

D||--20--19------19--------------22b~--||
A||----------20------20--19--17--------||
F||------------------------------------|| (not sure about this last one)
C||------------------------------------||
G||------------------------------------||
D||------------------------------------||

Turing solo same riff as Break

Pre-Chorus
Chorus

Outro:
Same riff as intro

            
            
Suggest correction
Creating personal tab
Creating personal tab
You can edit any tab online and save it as your Personal.

You can edit, replace or remove any tab part or add personal notes – all changes will be seen only by you.

Personal tabs can be accessed anytime from any device, even offline.
Learn more »
comments
print report bad tab
guest
You may want to rate the tab now too:
select rating
Wanna post a correction for this tab? Suggest correction