Oops, an error
Loading. Please wait.
We have an official Last To Know tab made by UG professional guitarists. Check out the tab »
×
12,824 views 6 this week
3 commentsread comments
1 2 3 4 5
x 10
add to favorites
×
Save as Personal and add changes to this tab that will be seen only by you. Learn more ›
×
You can save this tab as Personal to edit and correct it or add notes. All changes will be seen only by you. Learn more »
launch autoscroll
font size
0
reset
how to read this tab
guitar tuner
edit
Autoscroll
slow
fast
+/-
esc
set tempo
stop
Last To Know
Bullet For My Valentine
Scream Aim Fire
D Tuning- DCGFAD

-Intro-
Matt
D|----------------------------------------------------------|
A|----------------------------------------------------------|
F|--------------------5h7p5--4-5-4--------------------------|
C|-5h7p5-4-5-4---------------------7-5-4---2~~-4~~-5~~--7~~-|
G|-------------7-5-7----------------------------------------|
D|----------------------------------------------------------|
Padge    - - - - - -         - - - - - -
D|----------------------------------------------------------|
A|----------------------------------------------------------|
F|-4h5p4-2-4-2--------9h10p9-7-9-7--------------------------|
C|-------------5-4-5---------------10-9-7--5~~-7~~-9~~-10~~-|
G|----------------------------------------------------------|
D|----------------------------------------------------------|
         - - - - - -         - - - -  - -

Matt
D|-------------------------------------------------------------------|
A|-------------------------------------------------------------------|
F|-------------------------------------------------------------------|
C|-------------------------------------------------------------------|
G|-2~-------------2h3p2-0-2-0-------2~-------------2h3p2-0-2-0-------|
D|-0~-0-0-0-0-0-0-------------3-2-0-0~-0-0-0-0-0-0-------------3-2-0-|
      - - - - - -       - - - - - -    - - - - - -       - - - - - -
Padge
D|-------------------------------------------------------------------|
A|-------------------------------------------------------------------|
F|-------------------------------------------------------------------|
C|-2~~~~~~~~~~~~~~~~~~~~~~~~~~~~~~~~~~~~~~~~~~~~~~~~~~~~~~~~~~~~~~~~-|
G|-2~~~~~~~~~~~~~~~~~~~~~~~~~~~~~~~~~~~~~~~~~~~~~~~~~~~~~~~~~~~~~~~~-|
D|-0~~~~~~~~~~~~~~~~~~~~~~~~~~~~~~~~~~~~~~~~~~~~~~~~~~~~~~~~~~~~~~~~-|

Matt
D|----------------------------------------------------------------|
A|----------------------------------------------------------------|
F|-7~---------7-------7-----7---7-5~-----------5------------------|
C|-7~-7-7-7-7-7-7-7-7-7-7-7-7-7-7-5~-5-5-5-5-5-5--5h7p5-4-5-4-----|
G|-5~-5-5-5-5-5-5-5-5-5-5-5-5-5-5-3~-3-3-3-3-3-3--------------7-5-|
D|----------------------------------------------------------------|
      - - - -   - - -   - -   -      - - - - -          - - - - -
Padge
D|----------------------------------------------------------------|
A|----------------------------------------------------------------|
F|-7~~~~~~~~~~~~~~~~~~~~~~~~~~~~~-5~~~~~~~~~~~~~--4h5p5-2-4-2-----|
C|-7~~~~~~~~~~~~~~~~~~~~~~~~~~~~~-5~~~~~~~~~~~~~--------------5-4-|
G|-5~~~~~~~~~~~~~~~~~~~~~~~~~~~~~-3~~~~~~~~~~~~~------------------|
D|----------------------------------------------------------------|
                                                         - - - - -


-Verse-
Matt & Padge
D||--------------------------------------------------------------------|
A||o-------------------------------------------------------------------|
F||--------------------------------------------------------------------|
C||--------------------------------------------------------------------|
G||o-2~-------------2h3p2-0-2-0-------2~-------------2h3p2-0-2-0-------|
D||--0~-0-0-0-0-0-0-------------3-2-0-0~-0-0-0-0-0-0-------------3-2-0-|
        - - - - - -       - - - - - -    - - - - - -       - - - - - -
-"HERE COME BROKEN BONES! WHERE'S YOUR STICKS AND...
-KNOW! CANNOT TAKE NO MORE! TIME TO SETTLE...

D|-----------------------------------------------|
A|-----------------------------------------------|
F|-7~---------7-------7-----7---7-5~-----------5-|
C|-7~-7-7-7-7-7-7-7-7-7-7-7-7-7-7-5~-5-5-5-5-5-5-|
G|-5~-5-5-5-5-5-5-5-5-5-5-5-5-5-5-3~-3-3-3-3-3-3-|
D|-----------------------------------------------|
      - - - -   - - -   - -   -      - - - - -
...STONES! Words you use to hurt me...
...SCORES! Filled with rage and fury...

Matt
D|------------------||
A|-----------------o||
F|------------------||
C|-5h7p5-4-5-4------||
G|-------------7-5-o||
D|------------------||
Padge    - - - - -
D|------------------||
A|-----------------o||
F|-4h5p4-2-4-2------||
C|-------------5-4--||
G|-----------------o||
D|------------------||
         - - - - -
...SOMETHING YOU SHOULD...
...BLOOD I'LL MAKE IT...


-Pre Chorus-
Matt
D|--------------------------------------------------------------|
A|--------------------------------------------------------------|
F|--------------------------------------------------------------|
C|-4/5-5-5-5-5-5-5-5-5-5-5-5-5-5--4/5-5-5-5-5-5-5-5-5-5-5-5-5-5-|
G|-5/7-7-7-7-7-7-7-7-7-7-7-7-7-7--5/7-7-7-7-7-7-7-7-7-7-7-7-7-7-|
D|--------------------------------------------------------------|
         - - -   - - -   - -   -        - - -   - - -   - -   -
Padge
D|--------------------------------------------------------------|
A|--------------------------------------------------------------|
F|--------------------------------------------------------------|
C|-2~~~~~~~~~~~~~~~~~~~~~~~~~~~~~~~~~~~~~~~~~~~~~~~~~~~~~~~~~~~~|
G|-2~~~~~~~~~~~~~~~~~~~~~~~~~~~~~~~~~~~~~~~~~~~~~~~~~~~~~~~~~~~~|
D|-0~~~~~~~~~~~~~~~~~~~~~~~~~~~~~~~~~~~~~~~~~~~~~~~~~~~~~~~~~~~~|
"(OUR!!!) Hypocrisy... From jealousy...

Matt
D|-------------------------------------------------------------|
A|-------------------------------------------------------------|
F|---------------------------------------------------0-------0-|
C|-4/5-5-5-5-5-5-5-5-5-5-5-5-5-5--4/5-5-5-5-5-5----4---4---4---|
G|-5/7-7-7-7-7-7-7-7-7-7-7-7-7-7--5/7-7-7-7-7-7--3-------3-----|
D|-------------------------------------------------------------|
         - - -   - - -   - -   -        - - -    - -     - -
Padge
D|-------------------------------------------------------------|
A|-------------------------------------------------------------|
F|---------------------------------------------------0-------0-|
C|~~~~~~~~~~~~~~~~~~~~~~~~~~~~~~~~~~~~~~~~~~~~~~---4---4---4---|
G|~~~~~~~~~~~~~~~~~~~~~~~~~~~~~~~~~~~~~~~~~~~~~~-3-------3-----|
D|~~~~~~~~~~~~~~~~~~~~~~~~~~~~~~~~~~~~~~~~~~~~~~---------------|
                                                 - -     - -
...Hypocrisy... From jealousy"


-Chorus-
Matt & Padge
D||--------------------------------------------|
A||o-------------------------------------------|
F||--------------------------------------------|
C||--7/9--------9--------9------9-7/9--------9-|
G||o-5/7-777777-7-777777-7-7777-7-5/7-777777-7-|
D||--------------------------------------------|
         ------   ------   ----       ------
"LIES YOU SPIT ARE HARMLESS TO ME! YOUR SPITE!

Matt
D|----------------|
A|-8-7-----10-8-7-|
F|-----7----------|
C|-------9--------|
G|----------------|
D|----------------|
       - -
Padge
D|-7-5-----8-7----|
A|-----8-------10-|
F|-------9--------|
C|----------------|
G|----------------|
D|----------------|
       - -
...YOUR GREED! YOUR ENVY!

Matt & Padge
D|--------------------------------------------------------||
A|-------------------------------------------------------o||
F|----------------------------5--5--9--9--7--7--12--12-9--||
C|-7/9--------9--------9------5--5--9--9--7--7--12--12-9--||
G|-5/7-777777-7-777777-7-7777-3--3--7--7--5--5--10--10-7-o||
D|--------------------------------------------------------||
       ------   ------   ----
...Why do you stoop so low? Am I the Last To Know?"


Matt
D|-------------------------------------------------------------------|
A|-------------------------------------------------------------------|
F|-------------------------------------------------------------------|
C|-------------------------------------------------------------------|
G|-2~-------------2h3p2-0-2-0-------2~-------------2h3p2-0-2-0-------|
D|-0~-0-0-0-0-0-0-------------3-2-0-0~-0-0-0-0-0-0-------------3-2-0-|
      - - - - - -       - - - - - -    - - - - - -       - - - - - -
Padge
D|-------------------------------------------------------------------|
A|-------------------------------------------------------------------|
F|-------------------------------------------------------------------|
C|-2~~~~~~~~~~~~~~~~~~~~~~~~~~~~~~~~~~~~~~~~~~~~~~~~~~~~~~~~~~~~~~~~-|
G|-2~~~~~~~~~~~~~~~~~~~~~~~~~~~~~~~~~~~~~~~~~~~~~~~~~~~~~~~~~~~~~~~~-|
D|-0~~~~~~~~~~~~~~~~~~~~~~~~~~~~~~~~~~~~~~~~~~~~~~~~~~~~~~~~~~~~~~~~-|

Matt
D|----------------------------------------------------------------|
A|----------------------------------------------------------------|
F|-7~---------7-------7-----7---7-5~-----------5------------------|
C|-7~-7-7-7-7-7-7-7-7-7-7-7-7-7-7-5~-5-5-5-5-5-5--5h7p5-4-5-4-----|
G|-5~-5-5-5-5-5-5-5-5-5-5-5-5-5-5-3~-3-3-3-3-3-3--------------7-5-|
D|----------------------------------------------------------------|
      - - - -   - - -   - -   -      - - - - -          - - - - -
Padge
D|----------------------------------------------------------------|
A|----------------------------------------------------------------|
F|-7~~~~~~~~~~~~~~~~~~~~~~~~~~~~~-5~~~~~~~~~~~~~--4h5p5-2-4-2-----|
C|-7~~~~~~~~~~~~~~~~~~~~~~~~~~~~~-5~~~~~~~~~~~~~--------------5-4-|
G|-5~~~~~~~~~~~~~~~~~~~~~~~~~~~~~-3~~~~~~~~~~~~~------------------|
D|----------------------------------------------------------------|
                                                         - - - - -


-Verse-
Matt & Padge
D||--------------------------------------------------------------------|
A||o-------------------------------------------------------------------|
F||--------------------------------------------------------------------|
C||--------------------------------------------------------------------|
G||o-2~-------------2h3p2-0-2-0-------2~-------------2h3p2-0-2-0-------|
D||--0~-0-0-0-0-0-0-------------3-2-0-0~-0-0-0-0-0-0-------------3-2-0-|
        - - - - - -       - - - - - -    - - - - - -       - - - - - -
-"WHERE'S YOUR BIG MOUTH NOW! HOPE YOU'RE FUCKIN'...
-SOUND! IS YOUR LESSON LEARNED! HOW THE TABLES...

D|-----------------------------------------------|
A|-----------------------------------------------|
F|-7~---------7-------7-----7---7-5~-----------5-|
C|-7~-7-7-7-7-7-7-7-7-7-7-7-7-7-7-5~-5-5-5-5-5-5-|
G|-5~-5-5-5-5-5-5-5-5-5-5-5-5-5-5-3~-3-3-3-3-3-3-|
D|-----------------------------------------------|
      - - - -   - - -   - -   -      - - - - -
...PROUD! Do you like your bruises...
...TURN! What were your intentions...

Matt
D|------------------||
A|-----------------o||
F|------------------||
C|-5h7p5-4-5-4------||
G|-------------7-5-o||
D|------------------||
Padge    - - - - -
D|------------------||
A|-----------------o||
F|-4h5p4-2-4-2------||
C|-------------5-4--||
G|-----------------o||
D|------------------||
         - - - - -
...NOW YOU MAKE NO...
...TO HELL WITH YOU, NOW...


-Pre Chorus-
Matt
D|--------------------------------------------------------------|
A|--------------------------------------------------------------|
F|--------------------------------------------------------------|
C|-4/5-5-5-5-5-5-5-5-5-5-5-5-5-5--4/5-5-5-5-5-5-5-5-5-5-5-5-5-5-|
G|-5/7-7-7-7-7-7-7-7-7-7-7-7-7-7--5/7-7-7-7-7-7-7-7-7-7-7-7-7-7-|
D|--------------------------------------------------------------|
         - - -   - - -   - -   -        - - -   - - -   - -   -
Padge
D|--------------------------------------------------------------|
A|--------------------------------------------------------------|
F|--------------------------------------------------------------|
C|-2~~~~~~~~~~~~~~~~~~~~~~~~~~~~~~~~~~~~~~~~~~~~~~~~~~~~~~~~~~~~|
G|-2~~~~~~~~~~~~~~~~~~~~~~~~~~~~~~~~~~~~~~~~~~~~~~~~~~~~~~~~~~~~|
D|-0~~~~~~~~~~~~~~~~~~~~~~~~~~~~~~~~~~~~~~~~~~~~~~~~~~~~~~~~~~~~|
(BURN!!!) Hypocrisy... From jealousy...

Matt
D|-------------------------------------------------------------|
A|-------------------------------------------------------------|
F|---------------------------------------------------0-------0-|
C|-4/5-5-5-5-5-5-5-5-5-5-5-5-5-5--4/5-5-5-5-5-5----4---4---4---|
G|-5/7-7-7-7-7-7-7-7-7-7-7-7-7-7--5/7-7-7-7-7-7--3-------3-----|
D|-------------------------------------------------------------|
         - - -   - - -   - -   -        - - -    - -     - -
Padge
D|-------------------------------------------------------------|
A|-------------------------------------------------------------|
F|---------------------------------------------------0-------0-|
C|~~~~~~~~~~~~~~~~~~~~~~~~~~~~~~~~~~~~~~~~~~~~~~---4---4---4---|
G|~~~~~~~~~~~~~~~~~~~~~~~~~~~~~~~~~~~~~~~~~~~~~~-3-------3-----|
D|~~~~~~~~~~~~~~~~~~~~~~~~~~~~~~~~~~~~~~~~~~~~~~---------------|
                                                 - -     - -
...Hypocrisy... From jealousy"


-Chorus-
Matt & Padge
D||--------------------------------------------|
A||o-------------------------------------------|
F||--------------------------------------------|
C||--7/9--------9--------9------9-7/9--------9-|
G||o-5/7-777777-7-777777-7-7777-7-5/7-777777-7-|
D||--------------------------------------------|
         ------   ------   ----       ------
"LIES YOU SPIT ARE HARMLESS TO ME! YOUR SPITE!

Matt
D|----------------|
A|-8-7-----10-8-7-|
F|-----7----------|
C|-------9--------|
G|----------------|
D|----------------|
       - -
Padge
D|-7-5-----8-7----|
A|-----8-------10-|
F|-------9--------|
C|----------------|
G|----------------|
D|----------------|
       - -
...YOUR GREED! YOUR ENVY!

Matt & Padge
D|--------------------------------------------------------||
A|-------------------------------------------------------o||
F|----------------------------5--5--9--9--7--7--12--12-9--||
C|-7/9--------9--------9------5--5--9--9--7--7--12--12-9--||
G|-5/7-777777-7-777777-7-7777-3--3--7--7--5--5--10--10-7-o||
D|--------------------------------------------------------||
       ------   ------   ----
...Why do you stoop so low? Am I the Last To Know?"


-Breakdown-
Matt
D||-----------------------------------------------------------|
A||o----------------------------------------------------------|
F||-----------------------------------------------------------|
C||------2--2p0-----0--0h2------------2--2p0-----0--0h2-------|
G||o-3-3--------3-3--------3--3~--3-3--------3-3--------5--2~-|
D||-----------------------------------------------------3--0~-|
     - -        - -               - -        - -
Padge
D||-----------------------------------------------------------|
A||o----------------------------------------------------------|
F||-----------------------------------------------------------|
C||------5--5p4-----4--4h5------------5--5p4-----4--4h5-------|
G||o-3-3--------3-3--------3--3~--3-3--------3-3--------5--2~-|
D||-----------------------------------------------------3--0~-|
     - -        - -               - -        - -

Matt
D|----------------------------------------------------------||
A|---------------------------------------------------------o||
F|----------------------------------------------------------||
C|-----5--5p4-----4--4h5------------5--5p4-----4-5h7--7-5~--||
G|-----------------------2--2~------------------------5-3~-o||
D|-0-0--------0-0--------0--0~--0-0--------0-0--------------||
   - -        - -               - -        - -
Padge
D|----------------------------------------------------------||
A|---------------------------------------------------------o||
F|----------------------------------------------------------||
C|-----9--9p7-----7--7h9------------9--9p7-----7-7h9--7-5~--||
G|-----------------------2--2~------------------------5-3~-o||
D|-0-0--------0-0--------0--0~--0-0--------0-0--------------||
   - -        - -               - -        - -
                                "...Am I The Last To Know?"

-Solo
Padge
D|------------15-14----14-------------------------15-14----------14-17-17br-|
A|-/17b==r~~--------15----15----------------------------15----15------------|
F|---------------------------14-12~~~~-/9~~-/11~~----------14---------------|
C|--------------------------------------------------------------------------|
G|--------------------------------------------------------------------------|
C|--------------------------------------------------------------------------|

D|-22b=====r~-20-19----19------------17-19-20-17-19-20-17-20-|
A|------------------20----20-19-17~~-------------------------|
F|-----------------------------------------------------------|
C|-----------------------------------------------------------|
G|-----------------------------------------------------------|
D|-----------------------------------------------------------|

D|-15-17-19-15-17-19-15-19-14-15-17-14-15-17-14-17-20-19----19----------22b====r~-|
A|-------------------------------------------------------20----20-19-17-----------|
F|--------------------------------------------------------------------------------|
C|--------------------------------------------------------------------------------|
G|--------------------------------------------------------------------------------|
D|--------------------------------------------------------------------------------|
Matt Under Solo
Matt
D||-----------------------------------------------------------|
A||o----------------------------------------------------------|
F||-----------------------------------------------------------|
C||------2--2p0-----0--0h2------------2--2p0-----0--0h2-------|
G||o-3-3--------3-3--------3--3~--3-3--------3-3--------5--2~-|
D||-----------------------------------------------------3--0~-|
     - -        - -               - -        - -
Gtr 3
D||-----------------------------------------------------------|
A||o----------------------------------------------------------|
F||-----------------------------------------------------------|
C||------5--5p4-----4--4h5------------5--5p4-----4--4h5-------|
G||o-3-3--------3-3--------3--3~--3-3--------3-3--------5--2~-|
D||-----------------------------------------------------3--0~-|
     - -        - -               - -        - -

Matt
D|----------------------------------------------------------||
A|---------------------------------------------------------o||
F|----------------------------------------------------------||
C|-----5--5p4-----4--4h5------------5--5p4-----4-5h7--7-5~--||
G|-----------------------2--2~------------------------5-3~-o||
D|-0-0--------0-0--------0--0~--0-0--------0-0--------------||
   - -        - -               - -        - -
Gtr 3
D|----------------------------------------------------------||
A|---------------------------------------------------------o||
F|----------------------------------------------------------||
C|-----9--9p7-----7--7h9------------9--9p7-----7-7h9--7-5~--||
G|-----------------------2--2~------------------------5-3~-o||
D|-0-0--------0-0--------0--0~--0-0--------0-0--------------||
   - -        - -               - -        - -


-Pre Chorus-
Matt
D|--------------------------------------------------------------|
A|--------------------------------------------------------------|
F|--------------------------------------------------------------|
C|-4/5-5-5-5-5-5-5-5-5-5-5-5-5-5--4/5-5-5-5-5-5-5-5-5-5-5-5-5-5-|
G|-5/7-7-7-7-7-7-7-7-7-7-7-7-7-7--5/7-7-7-7-7-7-7-7-7-7-7-7-7-7-|
D|--------------------------------------------------------------|
         - - -   - - -   - -   -        - - -   - - -   - -   -
Padge
D|--------------------------------------------------------------|
A|--------------------------------------------------------------|
F|--------------------------------------------------------------|
C|-2~~~~~~~~~~~~~~~~~~~~~~~~~~~~~~~~~~~~~~~~~~~~~~~~~~~~~~~~~~~~|
G|-2~~~~~~~~~~~~~~~~~~~~~~~~~~~~~~~~~~~~~~~~~~~~~~~~~~~~~~~~~~~~|
D|-0~~~~~~~~~~~~~~~~~~~~~~~~~~~~~~~~~~~~~~~~~~~~~~~~~~~~~~~~~~~~|
(BURN!!!) Hypocrisy... From jealousy...

Matt
D|-------------------------------------------------------------|
A|-------------------------------------------------------------|
F|---------------------------------------------------0-------0-|
C|-4/5-5-5-5-5-5-5-5-5-5-5-5-5-5--4/5-5-5-5-5-5----4---4---4---|
G|-5/7-7-7-7-7-7-7-7-7-7-7-7-7-7--5/7-7-7-7-7-7--3-------3-----|
D|-------------------------------------------------------------|
         - - -   - - -   - -   -        - - -    - -     - -
Padge
D|-------------------------------------------------------------|
A|-------------------------------------------------------------|
F|---------------------------------------------------0-------0-|
C|~~~~~~~~~~~~~~~~~~~~~~~~~~~~~~~~~~~~~~~~~~~~~~---4---4---4---|
G|~~~~~~~~~~~~~~~~~~~~~~~~~~~~~~~~~~~~~~~~~~~~~~-3-------3-----|
D|~~~~~~~~~~~~~~~~~~~~~~~~~~~~~~~~~~~~~~~~~~~~~~---------------|
                                                 - -     - -
...Hypocrisy... From jealousy"


-Chorus-
Matt & Padge
D||--------------------------------------------|
A||o-------------------------------------------|
F||--------------------------------------------|
C||--7/9--------9--------9------9-7/9--------9-|
G||o-5/7-777777-7-777777-7-7777-7-5/7-777777-7-|
D||--------------------------------------------|
         ------   ------   ----       ------
"LIES YOU SPIT ARE HARMLESS TO ME! YOUR SPITE!

Matt
D|----------------|
A|-8-7-----10-8-7-|
F|-----7----------|
C|-------9--------|
G|----------------|
D|----------------|
       - -
Padge
D|-7-5-----8-7----|
A|-----8-------10-|
F|-------9--------|
C|----------------|
G|----------------|
D|----------------|
       - -
...YOUR GREED! YOUR ENVY!

Matt & Padge
D|--------------------------------------------------------||
A|-------------------------------------------------------o||
F|----------------------------5--5--9--9--7--7--12--12-9--||
C|-7/9--------9--------9------5--5--9--9--7--7--12--12-9--||
G|-5/7-777777-7-777777-7-7777-3--3--7--7--5--5--10--10-7-o||
D|--------------------------------------------------------||
       ------   ------   ----
...Why do you stoop so low? Am I the Last To Know?"

Matt
D|----------------------------------------------------------|
A|----------------------------------------------------------|
F|--------------------5h7p5--4-5-4--------------------------|
C|-5h7p5-4-5-4---------------------7-5-4---2~~-4~~-5~~--7~~-|
G|-------------7-5-7----------------------------------------|
D|----------------------------------------------------------|
Padge    - - - - - -         - - - - - -
D|----------------------------------------------------------|
A|----------------------------------------------------------|
F|-4h5p4-2-4-2--------9h10p9-7-9-7--------------------------|
C|-------------5-4-5---------------10-9-7--5~~-7~~-9~~-10~~-|
G|----------------------------------------------------------|
D|----------------------------------------------------------|
         - - - - - -         - - - -  - -

            
            
Suggest correction
Creating personal tab
Creating personal tab
You can edit any tab online and save it as your Personal.

You can edit, replace or remove any tab part or add personal notes – all changes will be seen only by you.

Personal tabs can be accessed anytime from any device, even offline.
Learn more »
comments
print report bad tab
3 comments total. show 1 bad comment
0 reply
Hardcore Hector 51 Jul 04, 2010 12:15 PM

Hey pretty good mate...
I play exactly the same...

0 reply
shota666 22 Oct 13, 2016 05:23 AM

Great tab dude!

guest
You may want to rate the tab now too:
select rating
Wanna post a correction for this tab? Suggest correction