Oops, an error
Loading. Please wait.

Pleasure And Pain tab

version 2
version 2

Whole song

Interactive

35,813 views 6 this week
14 commentsread comments
1 2 3 4 5
x 20
add to favorites
×
Save as Personal and add changes to this tab that will be seen only by you. Learn more ›
×
You can save this tab as Personal to edit and correct it or add notes. All changes will be seen only by you. Learn more »
launch autoscroll
font size
0
reset
how to read this tab
guitar tuner
backing track
0:00
0:00
edit
Autoscroll
slow
fast
+/-
esc
set tempo
stop
AWESOME SONG!! One of my favorites off of "Fever". I'll be tabbing the whole freaking 
so look out for them!! Next one is Dignity :)

Check out my five-star rated Your Betrayal, Fever, The Last Fight, Alone, and Begging 
Mercy tabs!!!

----------------------------------------------------------------------
PLEASE READ BELOW!!!!!!!!!!!!!!!!!!!!!!!!!!!!!!!!!!!
----------------------------------------------------------------------

NOTE: For the solo, if I get enough comments complaining about harmonies,
I will certainly put them in there!!! Otherwise you gotta figure them out
for yourself, sorry!!!

----------------------------------------------------------------------

RATE AND COMMENT!!!!!!!

And most of all, enjoy :) and give me corrections if something is wrong before you 
rate less than four stars!!

**UPDATED 5/4/10**
--completely fixed the verse... it was completely wrong. now it's 100%.

Bullet for My Valentine
"Pleasure and Pain"
Fever

"COME TAKE THIS SACRIFICE!!"


INTRO---
Guitar 1:
(0:03)
|-------------------------------------------------------------------------|
|-------------------------------------------------------------------------|
|-------------------------------------------------------------------------|
|-------------------------------------------------2h3-3-3h5-5-5h7-7-7h8-8-|
|-3h5-5-3h5-5-3h5-3h5-5-3h5-5-3h6-3h5-5-3h5-5-3h5-------------------------|
|-------------------------------------------------------------------------|
    . .   . .   .   . .   . .   .   . .   . .   . . . . . . . . . . . . .

(0:09)
|-------------------------------------------------------------------------|
|-------------------------------------------------------------------------|
|-------------------------------------------------------------------------|
|-------------------------------------------------2h3-3-3h5-5-5h7-7-7h8-8-|
|-3h5-5-3h5-5-3h5-3h5-5-3h5-5-3h6-3h5-5-3h5-5-3h5-------------------------|
|-------------------------------------------------------------------------|
    . .   . .   .   . .   . .   .   . .   . .   . . . . . . . . . . . . .

(0:14)
|-------------------------------------------------------------------------|
|-------------------------------------------------------------------------|
|-------------------------------------------------------------------------|
|-------------------------------------------------2h3-3-3h5-5-5h7-7-7h8-8-|
|-3h5-5-3h5-5-3h5-3h5-5-3h5-5-3h6-3h5-5-3h5-5-3h5-------------------------|
|-------------------------------------------------------------------------|
    . .   . .   .   . .   . .   .   . .   . .   . . . . . . . . . . . . .

(0:19)
|-------------------------------------------------------------------------|
|-------------------------------------------------------------------------|
|-------------------------------------------------------------------------|
|-------------------------------------------------2h3-3-3h5-5-5h7-7-7h8-8-|
|-3h5-5-3h5-5-3h5-3h5-5-3h5-5-3h6-3h5-5-3h5-5-3h5-------------------------|
|-------------------------------------------------------------------------|
    . .   . .   .   . .   . .   .   . .   . .   . . . . . . . . . . . . .

Guitar 2:
(0:03)
|-----------------------------------------------------------------------------|
|-----------------------------------------------------------------------------|
|-----------------------------------------------------------------------------|
|-0~~~~~~----------------------------------------5h7-7-7h8-8-8h10-10-10h12-12-|
|-0~~~~~~---------------------------------------------------------------------|
|-0~~~~~~---------------------------------------------------------------------|
                                                   . .   . .   .  .     .  .

(0:09)
|-----------------------------------------------------------------------------|
|-----------------------------------------------------------------------------|
|-----------------------------------------------------------------------------|
|-0~~~~~~----------------------------------------5h7-7-7h8-8-8h10-10-10h12-12-|
|-0~~~~~~---------------------------------------------------------------------|
|-0~~~~~~---------------------------------------------------------------------|
                                                   . .   . .   .  .     .  .

(0:14)
|------------------------------------------------------------------------------|
|------------------------------------------------------------------------------|
|------------------------------------------------------------------------------|
|-------------------------------------------------5h7-7-7h8-8-8h10-10-10h12-12-|
|-3h5-5-3h5-5-3h5-3h5-5-3h5-5-3h6-3h5-5-3h5-5-3h5------------------------------|
|------------------------------------------------------------------------------|
    . .   . .   .   . .   . .   .   . .   . .   .   . .   . .   .  .     .  .

(0:19)
|------------------------------------------------------------------------------|
|------------------------------------------------------------------------------|
|------------------------------------------------------------------------------|
|-------------------------------------------------5h7-7-7h8-8-8h10-10-10h12-12-|
|-3h5-5-3h5-5-3h5-3h5-5-3h5-5-3h6-3h5-5-3h5-5-3h5------------------------------|
|------------------------------------------------------------------------------|
    . .   . .   .   . .   . .   .   . .   . .   .   . .   . .   .  .     .  .



VERSE 1---
Guitar 1:
(0:25)
"Hey, don't walk away, I'm not done with, you're not done with me..."
|-------------------------------------------------------------------------|
|-------------------------------------------------------------------------|
|-------------------------------------------------------------------------|
|-------------------------------------------------2h3-3-3h5-5-5h7-7-7h8-8-|
|-3h5-5-3h5-5-3h5---3h5-5-3h5-3h6-3h5-5-3h5-5-3h5-------------------------|
|-------------------------------------------------------------------------|
    . .   . .   .     . .   .   .   . .   . .   . . . . . . . . . . . . .

(0:30)
"Stop, we can't survive, will you die for me, 'cause I'd die for you..."
|-------------------------------------------------------------------------|
|-------------------------------------------------------------------------|
|-------------------------------------------------------------------------|
|-------------------------------------------------2h3-3-3h5-5-5h7-7-7h8-8-|
|-3h5-5-3h5-5-3h5---3h5-5-3h5-3h6-3h5-5-3h5-5-3h5-------------------------|
|-------------------------------------------------------------------------|
    . .   . .   .     . .   .   .   . .   . .   . . . . . . . . . . . . .

(0:35)
"I, I'm not insane, cut my heart with this razor blade..."
|----------------------------------------------------------------------------|
|----------------------------------------------------------------------------|
|----------------------------------------------------------------------------|
|-----------------12\\-------------------------------2h3-3-3h5-5-5h7-7-7h8-8-|
|-3h5-5-3h5-5-3h5-12\\-3h5-5-3h5-3h6-3h5-5-3h5-5-3h5-------------------------|
|-----------------12\\-------------------------------------------------------|
    . .   . .   .        . .   .   .   . .   . .   . . . . . . . . . . . . .

(0:41)
"Take this sacrifice, you can feed on me, can I feed on you?..."
|-------------------------------------------------------------------------|
|-------------------------------------------------------------------------|
|-------------------------------------------------------------------------|
|-------------------------------------------------2h3-3-3h5-5-5h7-7-7h8-8-|
|-3h5-5-3h5-5-3h5---3h5-5-3h5-3h6-3h5-5-3h5-5-3h5-------------------------|
|-------------------------------------------------------------------------|
    . .   . .   .     . .   .   .   . .   . .   . . . . . . . . . . . . .

Guitar 2:
(0:25)
|------------------------------------------------------------------------------|
|------------------------------------------------------------------------------|
|------------------------------------------------------------------------------|
|-------------------------------------------------5h7-7-7h8-8-8h10-10-10h12-12-|
|-3h5-5-3h5-5-3h5---3h5-5-3h5-3h6-3h5-5-3h5-5-3h5------------------------------|
|------------------------------------------------------------------------------|
    . .   . .   .     . .   .   .   . .   . .   .   . .   . .   .  .     .  .

(0:30)
|------------------------------------------------------------------------------|
|------------------------------------------------------------------------------|
|------------------------------------------------------------------------------|
|-------------------------------------------------5h7-7-7h8-8-8h10-10-10h12-12-|
|-3h5-5-3h5-5-3h5---3h5-5-3h5-3h6-3h5-5-3h5-5-3h5------------------------------|
|------------------------------------------------------------------------------|
    . .   . .   .     . .   .   .   . .   . .   .   . .   . .   .  .     .  .

(0:35)
|-----------------------------------------------------------------------------|
|-----------------------------------------------------------------------------|
|-----------------------------------------------------------------------------|
|-------------12\\-------------------------------5h7-7-7h8-8-8h10-10-10h12-12-|
|-3h5-5-3h5-5-12\\-3h5-5-3h5-3h6-3h5-5-3h5-5-3h5------------------------------|
|-------------12\\------------------------------------------------------------|
    . .   . .        . .   .   .   . .   . .   .   . .   . .   .  .     .  .

(0:41)
|------------------------------------------------------------------------------|
|------------------------------------------------------------------------------|
|------------------------------------------------------------------------------|
|-------------------------------------------------5h7-7-7h8-8-8h10-10-10h12-12-|
|-3h5-5-3h5-5-3h5---3h5-5-3h5-3h6-3h5-5-3h5-5-3h5------------------------------|
|------------------------------------------------------------------------------|
    . .   . .   .     . .   .   .   . .   . .   .   . .   . .   .  .     .  .

PRECHORUS---
Both guitars:
(0:46)
"Come take this sacrifice! Come take this sacrifice..."
|-------------------------------------------|
|-------------------------------------------|
|-------------------------------------------|
|-0~~~~~~~~----\\\\\\\\\\\\\\\\\\\\\\\\\\\\-|
|-0~~~~~~~~----\\\\\\\\\\\\\\\\\\\\\\\\\\\\-|
|-0~~~~~~~~----\\\\\\\\\\\\\\\\\\\\\\\\\\\\-|

CHORUS---
(0:52)
Both guitars:
"You don't bring me pleasure..."
|-------------------------------------------------------------------|
|-------------------------------------------------------------------|
|-7--7-7-7-7-7-7-7-7-7-7-7-7-7-7-7----------------------------------|
|-x--x-x-x-x-x-x-x-x-x-x-x-x-x-x-x-3--3-3-3-3-3-3-3-3-3-3-3-3-3-3-3-|
|-5--5-5-5-5-5-5-5-5-5-5-5-5-5-5-5-3--3-3-3-3-3-3-3-3-3-3-3-3-3-3-3-|
|----------------------------------3--3-3-3-3-3-3-3-3-3-3-3-3-3-3-3-|

(0:57)
"You just bring me pain, over and over again..."
|--------------------------------------------------------------------|
|--------------------------------------------------------------------|
|-7--7-7-7-7-7-7-7-7-7-7-7-7-7-7-7-----------------------------------|
|-x--x-x-x-x-x-x-x-x-x-x-x-x-x-x-x-7--7-7-7-7-7-7-7-8--8-8-8-8-8-8-8-|
|-5--5-5-5-5-5-5-5-5-5-5-5-5-5-5-5-7--7-7-7-7-7-7-7-8--8-8-8-8-8-8-8-|
|----------------------------------7--7-7-7-7-7-7-7-8--8-8-8-8-8-8-8-|

(1:02)
"You don't bring me pleasure..."
|-------------------------------------------------------------------|
|-------------------------------------------------------------------|
|-7--7-7-7-7-7-7-7-7-7-7-7-7-7-7-7----------------------------------|
|-x--x-x-x-x-x-x-x-x-x-x-x-x-x-x-x-3--3-3-3-3-3-3-3-3-3-3-3-3-3-3-3-|
|-5--5-5-5-5-5-5-5-5-5-5-5-5-5-5-5-3--3-3-3-3-3-3-3-3-3-3-3-3-3-3-3-|
|----------------------------------3--3-3-3-3-3-3-3-3-3-3-3-3-3-3-3-|

(1:07)
"You just bring me pain, and nothing in between..."
|--------------------------------------------------------------------|
|--------------------------------------------------------------------|
|-7--7-7-7-7-7-7-7-7-7-7-7-7-7-7-7-----------------------------------|
|-x--x-x-x-x-x-x-x-x-x-x-x-x-x-x-x-3--3-3-3-3-3-3-3-5--5-5-5-5-5-5-5-|
|-5--5-5-5-5-5-5-5-5-5-5-5-5-5-5-5-1--1-1-1-1-1-1-1-3--3-3-3-3-3-3-3-|
|--------------------------------------------------------------------|

POSTCHORUS---
Guitar 1:
(1:13)
|-------------------------------------------------------------------------|
|-------------------------------------------------------------------------|
|-------------------------------------------------------------------------|
|-------------------------------------------------2h3-3-3h5-5-5h7-7-7h8-8-|
|-3h5-5-3h5-5-3h5-3h5-5-3h5-5-3h6-3h5-5-3h5-5-3h5-------------------------|
|-------------------------------------------------------------------------|
    . .   . .   .   . .   . .   .   . .   . .   . . . . . . . . . . . . .

(1:18)
|-------------------------------------------------------------------------|
|-------------------------------------------------------------------------|
|-------------------------------------------------------------------------|
|-------------------------------------------------2h3-3-3h5-5-5h7-7-7h8-8-|
|-3h5-5-3h5-5-3h5-3h5-5-3h5-5-3h6-3h5-5-3h5-5-3h5-------------------------|
|-------------------------------------------------------------------------|
    . .   . .   .   . .   . .   .   . .   . .   . . . . . . . . . . . . .

Guitar 2:
(1:13)
|------------------------------------------------------------------------------|
|------------------------------------------------------------------------------|
|------------------------------------------------------------------------------|
|-------------------------------------------------5h7-7-7h8-8-8h10-10-10h12-12-|
|-3h5-5-3h5-5-3h5-3h5-5-3h5-5-3h6-3h5-5-3h5-5-3h5------------------------------|
|------------------------------------------------------------------------------|
    . .   . .   .   . .   . .   .   . .   . .   .   . .   . .   .  .     .  .

(1:18)
|------------------------------------------------------------------------------|
|------------------------------------------------------------------------------|
|------------------------------------------------------------------------------|
|-------------------------------------------------5h7-7-7h8-8-8h10-10-10h12-12-|
|-3h5-5-3h5-5-3h5-3h5-5-3h5-5-3h6-3h5-5-3h5-5-3h5------------------------------|
|------------------------------------------------------------------------------|
    . .   . .   .   . .   . .   .   . .   . .   .   . .   . .   .  .     .  .

VERSE 2---
[repeat VERSE]
(1:24-1:45)
Hey, there's no escape, you can't run from me, I can't run from you...
Bow, 'cause I'm your god, will you pray for me, 'cause I'll pray for you...
Push your sins aside, nobody cares, your head's fucked inside...
Embrace your apathy, I don't care for you, you don't care for me..."


PRECHORUS---
[repeat PRECHORUS]
(1:45-1:50)
"Embrace your apathy, embrace your apathy..."

CHORUS---
[repeat CHORUS]
(1:50-2:11)
"You don't bring me pleasure...
You just bring me pain, over and over again...
You don't bring me pleasure...
You just bring me pain, and nothing in between..."

EXTRA CHORUS LINE---
Both guitars:
(2:12)
"and nothing in between..."
|-----------------------------------|
|-----------------------------------|
|-----------------------------------|
|-3--3-3-3-3-3-3-3-5--5-5-5-5-5-5-5-|
|-1--1-1-1-1-1-1-1-3--3-3-3-3-3-3-3-|
|-----------------------------------|


PRESOLO---
(2:14)
Guitar 1:
|----------------------------------------|
|------5-6-----5-6----5-6----5-6-----5-6-|
|-/7v~-----7v~-----7v-----7v-----5v~-----|
|----------------------------------------|
|----------------------------------------|
|----------------------------------------|

(2:20)
|-------------------------------5--6------|
|-----5-6-----5-6----5-6----5-6-------5v~-|
|-7v~-----7v~-----7v-----7v---------------|
|-----------------------------------------|
|-----------------------------------------|
|-----------------------------------------|

(2:25)
|----------------------------------------|
|------5-6-----5-6----5-6----5-6-----5-6-|
|-/7v~-----7v~-----7v-----7v-----5v~-----|
|----------------------------------------|
|----------------------------------------|
|----------------------------------------|

(2:30)
|-------------------------------5--6------|
|-----5-6-----5-6----5-6----5-6-------5v~-|
|-7v~-----7v~-----7v-----7v---------------|
|-----------------------------------------|
|-----------------------------------------|
|-----------------------------------------|

Guitar 2:
(2:14)
|--------------------------------------------|
|--------------------------------------------|
|-----------------------------------5-5------|
|-0--0--0-0-0--0--0-0-0--0-0-0--0-0-5-5--0-0-|
|-0--0--0-0-0--0--0-0-0--0-0-0--0-0-3-3--0-0-|
|-0--0--0-0-0--0--0-0-0--0-0-0--0-0------0-0-|

(2:20)
|--------------------------------------------|
|--------------------------------------------|
|-----------------------------------5-5------|
|-0--0--0-0-0--0--0-0-0--0-0-0--0-0-5-5--0-0-|
|-0--0--0-0-0--0--0-0-0--0-0-0--0-0-3-3--0-0-|
|-0--0--0-0-0--0--0-0-0--0-0-0--0-0------0-0-|

(2:25)
|-------------------------------------------------|
|-------8-10------8-10-----8-10-----8-10-----8-10-|
|-/10v~------10v~------10v------10v------9v~------|
|-------------------------------------------------|
|-------------------------------------------------|
|-------------------------------------------------|

(2:30)
|----------------------------------------8--10------|
|-------8-10------8-10-----8-10-----8-10--------8v~-|
|-/10v~------10v~------10v------10v-----------------|
|---------------------------------------------------|
|---------------------------------------------------|
|---------------------------------------------------|

SOLO---
Guitar 1:
(2:36)               v-- make sure this is already bent when you pluck it.
|-10---12--13---20---17br15b17~~--15p13h15~~-|
|-13b--15b-16b-------------------------------|
|--------------------------------------------|
|--------------------------------------------|
|--------------------------------------------|
|--------------------------------------------|

(2:41)
|----13----17----13----15----13----12h13p12-----------------|
|-15----15----15----15----15----15----------15-13v~---------|
|---------------------------------------------------12-10v~-|
|-----------------------------------------------------------|
|-----------------------------------------------------------|
|-----------------------------------------------------------|

(2:46)
|-15p10h13p10----10h15p10h13p10----10h15p10h13p10----|-15b17--15-13-12-|
|-------------13----------------13----------------13-|-----------------|
|--------------------------------------(however------|-----------------|
|-----------------------------------------many-------|-----------------|
|----------------------------------------times)------|-----------------|
|----------------------------------------------------|-----------------|

(2:52)
|-/12-h13p12----12----------------------------|
|------------13----13-11-10-------------------|
|---------------------------12-9b10br9--------|
|--------------------------------------10-12~-|
|---------------------------------------------|
|---------------------------------------------|

(2:54)
|----------12h13h15----------13h15h17----------15h17h18----------17h18h20-22~~-|
|-11h13h15----------13h15h17----------15h17h18----------17h18h20---------------|
|------------------------------------------------------------------------------|
|------------------------------------------------------------------------------|
|------------------------------------------------------------------------------|
|------------------------------------------------------------------------------|

Guitar 2:
(2:36)
|-----------------------------------------------------------|
|-----------------------------------------------------------|
|-----------------------------------------------------------|
|-0~~----------0------0------0-3~~----------3------3------3-|
|-0~~--0-0-0-0-0--0-0-0--0-0-0-3~~--3-3-3-3-3--3-3-3--3-3-3-|
|-0~~--0-0-0-0-0--0-0-0--0-0-0-3~~--3-3-3-3-3--3-3-3--3-3-3-|
       . . . .    . .    . .        . . . .    . .    . .

(2:41)
|-------------------------------------------------|
|-------------------------------------------------|
|-7~~----------7------7------7-2~~----------2-3~~-|
|-7~~--7-7-7-7-7--7-7-7--7-7-7-2~~--2-2-2-2-2-3~~-|
|-5~~--5-5-5-5-5--5-5-5--5-5-5-0~~--0-0-0-0-0-1~~-|
|-------------------------------------------------|
       . . . .    . .    . .        . . . .

(2:46)
|-----------------------------------------------------------|
|-----------------------------------------------------------|
|-----------------------------------------------------------|
|-0~~----------0------0------0-3~~----------3------3------3-|
|-0~~--0-0-0-0-0--0-0-0--0-0-0-3~~--3-3-3-3-3--3-3-3--3-3-3-|
|-0~~--0-0-0-0-0--0-0-0--0-0-0-3~~--3-3-3-3-3--3-3-3--3-3-3-|
       . . . .    . .    . .        . . . .    . .    . .

(2:52)
|------------------------------|
|------------------------------|
|-7~~----------7------7------7-|
|-7~~--7-7-7-7-7--7-7-7--7-7-7-|
|-5~~--5-5-5-5-5--5-5-5--5-5-5-|
|------------------------------|
       . . . .    . .    . .

(2:54)
|--------------------|
|--------------------|
|-3~~----------3-5~~-|
|-3~~--3-3-3-3-3-5~~-|
|-1~~--1-1-1-1-1-3~~-|
|--------------------|
       . . . .

CHORUS---
[repeat CHORUS]
(3:02-3:23)
"You don't bring me pleasure...
You just bring me pain, over and over again...
You don't bring me pleasure...
You just bring me pain, and nothing in between..."

EXTRA CHORUS LINES---
Guitar 1:
(3:24)
"nothing in between, no..."
|-----------------------------------|
|-----------------------------------|
|-----------------------------------|
|-3--3-3-3-3-3-3-3-5--5-5-5-5-5-5-5-|
|-1--1-1-1-1-1-1-1-3--3-3-3-3-3-3-3-|
|-----------------------------------|

(3:26)
"nothing in between..."
|------------------------------------------------|
|------------------------------------------------|
|-10--10-10-10-10-10-10-10-12--12-12-12-12-12-12-|
|--x---x--x--x--x--x--x--x--x---x--x--x--x--x--x-|
|--8---8--8--8--8--8--8--8-10--10-10-10-10-10-10-|
|------------------------------------------------|

OUTRO---
[repeat INTRO, but Guitar 2 is consistent with the last rows of tabs of playing]

            
            
Suggest correction
Creating personal tab
Creating personal tab
You can edit any tab online and save it as your Personal.

You can edit, replace or remove any tab part or add personal notes – all changes will be seen only by you.

Personal tabs can be accessed anytime from any device, even offline.
Learn more »
comments
print report bad tab
14 comments total. Showing first comments.
0 reply
Jimmis100gr 10 May 04, 2010 05:28 AM

the intro its wrong is something like this

0 reply
Jimmis100gr 10 May 04, 2010 05:30 AM

C|-3h5--3h5--3h53h5--3h5--3h6
G|----00----00-----00-----00

0 reply
iamghost 807 May 04, 2010 05:59 AM

Actually I fixed it. If you watch the video they palm mute on the 5. I just had the 3h5's on the wrong string by accident. Sorry!! Can you rerate it please?

guest
You may want to rate the tab now too:
select rating
Wanna post a correction for this tab? Suggest correction