Oops, an error
Loading. Please wait.
We have an official Pow tab made by UG professional guitarists. Check out the tab »
×
3,414 views 6 this week
no commentswrite comment
1 2 3 4 5
2 more votes to show rating
add to favorites
×
Save as Personal and add changes to this tab that will be seen only by you. Learn more ›
×
You can save this tab as Personal to edit and correct it or add notes. All changes will be seen only by you. Learn more »
launch autoscroll
font size
0
reset
guitar tuner
backing track
0:00
0:00
edit
Autoscroll
slow
fast
+/-
esc
set tempo
stop
Author
Unregistered
-------------------------------------------------------------------------------
                        P.O.W - Bullet For My Valentine
-------------------------------------------------------------------------------

Tuning: Drop C


Intro

F|-------------------------------------------------|
C|-------------------------------------------------|
G|-------------------------------------------------|
C|--0--0----0----0--0----------2--2----2----2--2---|
  
F|--------------------------------------------------------------|
C|--------------------------------------------------------------|
G|--------------------------------------------------------------|
C|--4--4----4----4--4----------4--4----4-------4--2----2----2---|

F|-------------------------------------------------|
C|-------------------------------------------------|
G|-------------------------------------------------|
C|--0--0----0----0--0----------2--2----2----2--2---|
  
F|--------------------------------------------------------------|
C|--------------------------------------------------------------|
G|--------------------------------------------------------------|
C|--4--4----4----4--4----------4--4----4-------4--7----7----7---|

F|-------------------------------------------------|
C|-------------------------------------------------|
G|-------------------------------------------------|
C|--0--0----0----0--0----------2--2----2----2--2---|
  
F|--------------------------------------------------------------|
C|--------------------------------------------------------------|
G|--------------------------------------------------------------|
C|--4--4----4----4--4----------4--4----4-------4--2----2----2---|

F|-------------------------------------------------|
C|-------------------------------------------------|
G|-------------------------------------------------|
C|--0--0----0----0--0----------2--2----2----2--2---|

F|--------------------------------------------------------------|
C|--------------------------------------------------------------|
G|--------------------------------------------------------------|
C|--2--4----4----4--2--4--------4----4--2--4----4-------4--4----|


Verse

F|--------------------------------------------------|
C|--4--4--4--4--4--4--4--4--4--4--4--4--4--4--4--4--|
G|--------------------------------------------------|
C|--------------------------------------------------|

F|--------------------------------------------------|
C|--4--4--4--4--4--4--4--4--------------------------|
G|--------------------------5--5--5--5--5--5--5--5--|
C|--------------------------------------------------|

F|--------------------------------------------------|
C|--------------------------------------------------|
G|--5--5--5--5--5--5--5--5--5--5--5--5--5--5--5--5--|
C|--------------------------------------------------|

F|--------------------------------------------------|
C|--------------------------------------------------|
G|--7--7--7--7--7--7--7--7--7--7--7--7--7--7--7--7--|
C|--------------------------------------------------|

F|--------------------------------------------------|
C|--------------------------4--4--4--4--4--4--4--4--|
G|--7--7--7--7--7--7--7--7--------------------------|
C|--------------------------------------------------|
  
F|--------------------------------------------------|
C|--4--4--4--4--4--4--4--4--4--4--4-----------------|
G|--------------------------------------------------|
C|-----------------------------------0--------------|


Pre Chorus

F|--------------------------------------------------|
C|--4--4--4--4--4--4--4--4--4--4--4--4--4--4--4--4--|
G|--------------------------------------------------|
C|--------------------------------------------------|

F|--------------------------------------------------|
C|--4--4--4--4--4--4--4--4--------------------------|
G|--------------------------5--5--5--5--5--5--5--5--|
C|--------------------------------------------------|

F|--------------------------------------------------|
C|--------------------------------------------------|
G|--5--5--5--5--5--5--5--5--5--5--5--5--5--5--5--5--|
C|--------------------------------------------------|

F|--------------------------------------------------|
C|--------------------------------------------------|
G|--7--7--7--7--7--7--7--7--7--7--7--7--7--7--7--7--|
C|--------------------------------------------------|

F|--------------------------------------------------|
C|--------------------------------------------------|
G|--7--7--7--7--7--7--7--7--------------------------|
C|--------------------------4--4--4--4--4--4--4--4--|
  
F|--------------------------------------------------|
C|--------------------------------------------------|
G|--------------------------------------------------|
C|--4--4--4--4--4--4--4--4--4--4--4--4--------------|


Chorus

F|-------------------------------------------------|
C|-------------------------------------------------|
G|-------------------------------------------------|
C|--0--0----0----0--0----------2--2----2----2--2---|
  
F|--------------------------------------------------------------|
C|--------------------------------------------------------------|
G|--------------------------------------------------------------|
C|--4--4----4----4--4----------4--4----4-------4--2----2----2---|

F|-------------------------------------------------|
C|-------------------------------------------------|
G|-------------------------------------------------|
C|--0--0----0----0--0----------2--2----2----2--2---|
  
F|--------------------------------------------------------------|
C|--------------------------------------------------------------|
G|--------------------------------------------------------------|
C|--4--4----4----4--4----------4--4----4-------4--7----7----7---|

F|-------------------------------------------------|
C|-------------------------------------------------|
G|-------------------------------------------------|
C|--0--0----0----0--0----------2--2----2----2--2---|
  
F|--------------------------------------------------------------|
C|--------------------------------------------------------------|
G|--------------------------------------------------------------|
C|--4--4----4----4--4----------4--4----4-------4--2----2----2---|

F|-------------------------------------------------|
C|-------------------------------------------------|
G|-------------------------------------------------|
C|--0--0----0----0--0----------2--2----2----2--2---|

F|--------------------------------------------------------------|
C|--------------------------------------------------------------|
G|--------------------------------------------------------------|
C|--2--4----4----4--2--4--------4----4--2--4----4-------4--4----|



Verse


F|--------------------------------------------------|
C|--4--4--4--4--4--4--4--4--4--4--4--4--4--4--4--4--|
G|--------------------------------------------------|
C|--------------------------------------------------|

F|--------------------------------------------------|
C|--4--4--4--4--4--4--4--4--------------------------|
G|--------------------------5--5--5--5--5--5--5--5--|
C|--------------------------------------------------|

F|--------------------------------------------------|
C|--------------------------------------------------|
G|--5--5--5--5--5--5--5--5--5--5--5--5--5--5--5--5--|
C|--------------------------------------------------|

F|--------------------------------------------------|
C|--------------------------------------------------|
G|--7--7--7--7--7--7--7--7--7--7--7--7--7--7--7--7--|
C|--------------------------------------------------|

F|--------------------------------------------------|
C|--------------------------------------------------|
G|--7--7--7--7--7--7--7--7--------------------------|
C|--------------------------4--4--4--4--4--4--4--4--|
  
F|--------------------------------------------------|
C|--------------------------------------------------|
G|--------------------------------------------------|
C|--4--4--4--4--4--4--4--4--4--4--4--4--------------|



Chorus

F|-------------------------------------------------|
C|-------------------------------------------------|
G|-------------------------------------------------|
C|--0--0----0----0--0----------2--2----2----2--2---|
  
F|--------------------------------------------------------------|
C|--------------------------------------------------------------|
G|--------------------------------------------------------------|
C|--4--4----4----4--4----------4--4----4-------4--2----2----2---|

F|-------------------------------------------------|
C|-------------------------------------------------|
G|-------------------------------------------------|
C|--0--0----0----0--0----------2--2----2----2--2---|
  
F|--------------------------------------------------------------|
C|--------------------------------------------------------------|
G|--------------------------------------------------------------|
C|--4--4----4----4--4----------4--4----4-------4--7----7----7---|

F|-------------------------------------------------|
C|-------------------------------------------------|
G|-------------------------------------------------|
C|--0--0----0----0--0----------2--2----2----2--2---|
  
F|--------------------------------------------------------------|
C|--------------------------------------------------------------|
G|--------------------------------------------------------------|
C|--4--4----4----4--4----------4--4----4-------4--2----2----2---|

F|-------------------------------------------------|
C|-------------------------------------------------|
G|-------------------------------------------------|
C|--0--0----0----0--0----------2--2----2----2--2---|

F|--------------------------------------------------------------|
C|--------------------------------------------------------------|
G|--------------------------------------------------------------|
C|--2--4----4----4--2--4--------4----4--2--4----4-------4--4----|


Interlude
             
F|-------------------------------------------------|
C|-------------------------------------------------|
G|-------------------------------------------------|
C|--4--4----4----4--4 ---------4--4----4----4--4---|

F|-------------------------------------------------------------|
C|-------------------------------------------------------------|
G|-------------------------------------------------------------|
C|---0----------4--4----4----4--4 ---------4--4----4----4--4---|

F|---------------------------------------|
C|---------------------------------------|
G|---------------------------------------|
C|---0------------4----L--L--4--4--4-----|
   
F|------------------------------------------------------------------------|
C|------------------------------------------------------------------------|
G|------------------------------------------------------------------------|
C|--4--4--4----4----4--4-----4----4----4----4-------4----------4--4--4----|

F|------------------------------------------------------------------------|
C|------------------------------------------------------------------------|
G|------------------------------------------------------------------------|
C|--4--4--4----4----4--4-----4----4----4----4-------4----------4--4--4----|

F|------------------------------------------------------------------------|
C|------------------------------------------------------------------------|
G|------------------------------------------------------------------------|
C|--4--4--4----4----4--4-----4----4----4----4-------4----------4--4--4----|
   
F|-------------------------------------|
C|-------------------------------------|
G|-------------------------------------|
C|--4--4--4----4----4--4------4----4---|



Chorus

F|-------------------------------------------------|
C|-------------------------------------------------|
G|-------------------------------------------------|
C|--0--0----0----0--0----------2--2----2----2--2---|
  
F|--------------------------------------------------------------|
C|--------------------------------------------------------------|
G|--------------------------------------------------------------|
C|--4--4----4----4--4----------4--4----4-------4--2----2----2---|

F|-------------------------------------------------|
C|-------------------------------------------------|
G|-------------------------------------------------|
C|--0--0----0----0--0----------2--2----2----2--2---|
  
F|--------------------------------------------------------------|
C|--------------------------------------------------------------|
G|--------------------------------------------------------------|
C|--4--4----4----4--4----------4--4----4-------4--7----7----7---|

F|-------------------------------------------------|
C|-------------------------------------------------|
G|-------------------------------------------------|
C|--0--0----0----0--0----------2--2----2----2--2---|
  
F|--------------------------------------------------------------|
C|--------------------------------------------------------------|
G|--------------------------------------------------------------|
C|--4--4----4----4--4----------4--4----4-------4--2----2----2---|

F|-------------------------------------------------|
C|-------------------------------------------------|
G|-------------------------------------------------|
C|--0--0----0----0--0----------2--2----2----2--2---|

F|--------------------------------------------------------------|
C|--------------------------------------------------------------|
G|--------------------------------------------------------------|
C|--2--4----4----4--2--4--------4----4--2--4----4-------4--4----|



Outro

F|-----------------------------------------------------------------------|
C|-----------------------------------------------------------------------|
G|-----------------------------------------------------------------------|
C|--0--0--0------0--0--------0----0----0--0--0-------0----2----2----2----|

F|-----------------------------------------------------------------------|
C|-----------------------------------------------------------------------|
G|-----------------------------------------------------------------------|
C|--0--0--0------0--0--------0----0----0--0--0-------0----2----2----2----|

******************************************************************************

            
            
Suggest correction
Creating personal tab
Creating personal tab
You can edit any tab online and save it as your Personal.

You can edit, replace or remove any tab part or add personal notes – all changes will be seen only by you.

Personal tabs can be accessed anytime from any device, even offline.
Learn more »
Give kudos to tab author, rate the tab!
1 2 3 4 5
comments
print report bad tab
guest
Wanna post a correction for this tab? Suggest correction