Oops, an error
Loading. Please wait.
We have an official Pretty On The Outside tab made by UG professional guitarists. Check out the tab »
×
47,906 views 9 this week
14 commentsread comments
1 2 3 4 5
x 17
add to favorites
×
Save as Personal and add changes to this tab that will be seen only by you. Learn more ›
×
You can save this tab as Personal to edit and correct it or add notes. All changes will be seen only by you. Learn more »
launch autoscroll
font size
0
reset
how to read this tab
guitar tuner
edit
Autoscroll
slow
fast
+/-
esc
set tempo
stop
----------------------------------------------------------------------------
                             Pretty On The Outside
                            Bullet For My Valentine
----------------------------------------------------------------------------

Finally, BFMV’s 3rd full album has come!!! This is my first BFMV tab and I wanted to do
on this one because this song really sticks out to me. I felt like this is a great tab,
I hope you think so too. My favorite band was between Dead By April And Bullet For My
but songs from the album “Fever” kicked Dead By April out of the competition.
NOTE: I have noticed a mistake on my tabbing that was caught by the eyes of iamghost 
account) and emo4ever@live.co.uk (email). I was playing the right way the whole time, but 
tabbing was off, so thanks you guys! Enjoy!

Username: dkm817 (same on X box live)
Email: guitardrums@rockfan.com

Guitar 1 Rhythmic (C G C F A D)
Guitar 2 Lead     (C G C F A D)

Intro 1

Guitar 1 (Fade In Effect)
D--------------------------------------------------------------
A-14*~~~~~~~~~~~~~~~~~~~~~~~~~~~~~~~~~~~~~~~~~~~~~~~~~~~~~~~~~~
F--------------------------------------------------------------|
C--------------------------------------------------------------|
G--------------------------------------------------------------|
C--------------------------------------------------------------|

Guitar 2
D---------------------------------------------------------------|
A-10-10~~-10~~-10-10~~-10~~-10~~-10-10~~-10~~-10-10~~-10~~-10~~-|
F----11~~---------11~~--------------11~~--------------11~~------|
C-11-11~~-11~~-11-11~~-11~~-11~~-11-11~~-11~~-11-11~~-11~~-11~~-|
G-9~-9~~~-9~~~-9~-9~~~-9~~~-9~~~-9~-9~~~-9~~~-9~-9~~~-9~~~-9~~~-|
C---------------------------------------------------------------|

Guitar 1
D--------------------------------------------------------------|
A--------------------------------------------------------------|
F--------------------------------------------------------------|
C--------------------------------------------------------------|
G--------------------------------------------------------------|
C--------------------------------------------------------------|

Guitar 2
D--------------------------------------------------------------|
A-9~-9~~~-9~~~-9~-9~~~-9~~~-9~~~-9~-9~~~-9~~~-9~-9-------------|
F---------11~~--------------11~~----11~~---------11------------|
C-11-11~~-11~~-11-11~~-11~~-11~~-11-11~~-11~~-11-11------------|
G-9~-9~~~-9~~~-9~-9~~~-9~~~-9~~~-9~-9~~~-9~~~-9~-9-------------|
C--------------------------------------------------------------|

Intro 2

Guitar 1
D---------------------------------------------------------------|
A---------------------------------------------------------------|
F---------------------------------------------------------------|
C-4~-4~~~-4~~~-4~-4~~~-4~~~-4~~~-4~-4~~~-4~~~-4~-4~~~-4~~~-4~~~-|
G-4~-4~~~-4~~~-4~-4~~~-4~~~-4~~~-4~-4~~~-4~~~-4~-4~~~-4~~~-4~~~-|
C-4~-4~~~-4~~~-4~-4~~~-4~~~-4~~~-4~-4~~~-4~~~-4~-4~~~-4~~~-4~~~-|

Guitar 2
D---------------------------------------------------------------|
A---------------------------------------------------------------|
F-11-11~~-11~~-11-11~~-11~~-11~~-14-14~~-14~~-14-13~~-13~~-13~~-|
C-x--x----x----x--x----x----x----x--x----x----x--x----x----x----|
G-9~-9~~~-9~~~-9~-9~~~-9~~~-9~~~-12-12~~-12~~-12-11~~-11~~-11~~-|
C---------------------------------------------------------------|

Guitar 1
D---------------------------------------------------------------|
A---------------------------------------------------------------|
F---------------------------------------------------------------|
C-0~-0~~~-0~~~-0~-0~~~-0~~~-0~~~-0~-0~~~-0~~~-0~-0~~~-0~~~-0~~~-|
G-0~-0~~~-0~~~-0~-0~~~-0~~~-0~~~-0~-0~~~-0~~~-0~-0~~~-0~~~-0~~~-|
C-0~-0~~~-0~~~-0~-0~~~-0~~~-0~~~-0~-0~~~-0~~~-0~-0~~~-0~~~-0~~~-|

Guitar 2
D---------------------------------------------------------------|
A---------------------------------------------------------------|
F-9~-9~~~-9~~~-9~-9~~~-9~~~-9~~~-9~-9~~~-9~~~-9~-9~~~-9~~~-9~~~-|
C-x--x----x----x--x----x----x----x--x----x----x--x----x----x----|
G-7~-7~~~-7~~~-7~-7~~~-7~~~-7~~~-7~-7~~~-7~~~-7~-7~~~-7~~~-7~~~-|
C---------------------------------------------------------------|

Guitar 1
D---------------------------------------------------------------|
A---------------------------------------------------------------|
F---------------------------------------------------------------|
C-4~-4~~~-4~~~-4~-4~~~-4~~~-4~~~-4~-4~~~-4~~~-4~-4~~~-4~~~-4~~~-|
G-4~-4~~~-4~~~-4~-4~~~-4~~~-4~~~-4~-4~~~-4~~~-4~-4~~~-4~~~-4~~~-|
C-4~-4~~~-4~~~-4~-4~~~-4~~~-4~~~-4~-4~~~-4~~~-4~-4~~~-4~~~-4~~~-|

Guitar 2
D---------------------------------------------------------------|
A---------------------------------------------------------------|
F-11-11~~-11~~-11-11~~-11~~-11~~-13-13~~-13~~-13-14~~-14~~-14~~-|
C-x--x----x----x--x----x----x----x--x----x----x--x----x----x----|
G-9~-9~~~-9~~~-9~-9~~~-9~~~-9~~~-11-11~~-11~~-11-12~~-12~~-12~~-|
C---------------------------------------------------------------|

Guitar 1
D----------------------------------------------------------------|
A----------------------------------------------------------------|
F----------------------------------------------------------------|
C-2~-2~~~-2~~~-2~-2~~~-2~~~-2~~~-2~-2~~~-2~~~-2~-2~-2~~~-2~~~-2~-|
G-2~-2~~~-2~~~-2~-2~~~-2~~~-2~~~-2~-2~~~-2~~~-2~-2~-2~~~-2~~~-2~-|
C-2~-2~~~-2~~~-2~-2~~~-2~~~-2~~~-2~-2~~~-2~~~-2~-2~-2~~~-2~~~-2~-|
pm                               .  .    .    .  .  .    .    .

Guitar 2
D----------------------------------------------------------------|
A----------------------------------------------------------------|
F-18-18~~-18~~-18-18~~-18~~-18~~-16-16~~-16~~-16-16-16~~-16~~-16-|
C-x--x----x----x--x----x----x----x--x----x----x--x--x----x----x--|
G-16-16~~-16~~-16-16~~-16~~-16~~-14-14~~-14~~-14-14-14~~-14~~-14-|
C----------------------------------------------------------------|

Guitar 1
D---------------------------------------------------------------|
A---------------------------------------------------------------|
F---------------------------------------------------------------|
C-0~-0~~~-0~~~-0~-0~~~-0~~~-0~~~-0~-0~~~-0~~~-0~-0~~~-0~~~-0~~~-|
G-0~-0~~~-0~~~-0~-0~~~-0~~~-0~~~-0~-0~~~-0~~~-0~-0~~~-0~~~-0~~~-|
C-0~-0~~~-0~~~-0~-0~~~-0~~~-0~~~-0~-0~~~-0~~~-0~-0~~~-0~~~-0~~~-|

Guitar 2
D---------------------------------------------------------------|
A---------------------------------------------------------------|
F-14-14~~-14~~-14-14~~-14~~-14~~-14-14~~-14~~-14-13~~-13~~-13~~-|
C-x--x----x----x--x----x----x----x--x----x----x--x----x----x----|
G-12-12~~-12~~-12-12~~-12~~-12~~-12-12~~-12~~-12-11~~-11~~-11~~-|
C---------------------------------------------------------------|

Guitar 1
D---------------------------------------------------------------|
A---------------------------------------------------------------|
F---------------------------------------------------------------|
C-2~-2~~~-2~~~-2~-2~~~-2~~~-2~~~-2~-2~~~-2~~~-2~-2~~~-2~~~-2~~~-|
G-2~-2~~~-2~~~-2~-2~~~-2~~~-2~~~-2~-2~~~-2~~~-2~-2~~~-2~~~-2~~~-|
C-2~-2~~~-2~~~-2~-2~~~-2~~~-2~~~-2~-2~~~-2~~~-2~-2~~~-2~~~-2~~~-|

Guitar 2
D---------------------------------------------------------------|
A---------------------------------------------------------------|
F-9~-9~~~-9~~~-9~-9~~~-9~~~-9~~~-9~-9~~~-9~~~-9~-9~~~-9~~~-9~~~-|
C-x--x----x----x--x----x----x----x--x----x----x--x----x----x----|
G-7~-7~~~-7~~~-7~-7~~~-7~~~-7~~~-7~-7~~~-7~~~-7~-7~~~-7~~~-7~~~-|
C---------------------------------------------------------------|

Break Off

Guitar 1
D-----------------------------------------------------------------------|
A-----------------------------------------------------------------------|
F-----------------------------------------------------------------------|
C-4~----------------4~----------------4~----------------12\-------------|
G-4~----------------4~----------------4~----------------12\-------------|
C-4~----------------4~----------------4~----------------12\-------------|

Guitar 2
D------------------------------------------------------------------------|
A------------------------------------------------------------------------|
F------------------------------------------------------------------------|
C----4-----6-----7-----------------------4-----6-----7-------------------|
G------------------------------------------------------------------------|
C-4-----4-----4-----4--4--4--4--4--4--4-----4-----4-----4--4--4--4--4--4-|
pm.     .     .     .  .  .  .  .  .  .     .     .     .  .  .  .  .  .

Verse 1

Guitar 1 & 2
D------------------------------------------------------------------------|
A------------------------------------------------------------------------|
F------------------------------------------------------------------------|
C----4-----6-----7-----------------------4-----6-----7-------------------|
G------------------------------------------------------------------------|
C-4-----4-----4-----4--4--4--4--4--4--4-----4-----4-----4--4--4--4--4--4-|
pm.     .     .     .  .  .  .  .  .  .     .     .     .  .  .  .  .  .

Guitar 1 & 2
D------------------------------------------------------------------------|
A------------------------------------------------------------------------|
F------------------------------------------------------------------------|
C----4-----6-----2-----------------------4-----6-----2-------------------|
G------------------------------------------------------------------------|
C-0-----0-----0-----0--0--0--0--0--0--0-----0-----0-----0--0--0--0--0--0-|
pm.     .     .     .  .  .  .  .  .  .     .     .     .  .  .  .  .  .

Guitar 1 & 2
D------------------------------------------------------------------------|
A------------------------------------------------------------------------|
F------------------------------------------------------------------------|
C----4-----6-----7-----------------------4-----6-----7-------------------|
G------------------------------------------------------------------------|
C-4-----4-----4-----4--4--4--4--4--4--4-----4-----4-----4--4--4--4--4--4-|
pm.     .     .     .  .  .  .  .  .  .     .     .     .  .  .  .  .  .

Guitar 1 & 2
D------------------------------------------------------------------------|
A------------------------------------------------------------------------|
F------------------------------------------------------------------------|
C----4-----6-----2-----------------------4-----6-----2--0--0--0--0--0--0-|
G-------------------------------------------------------0--0--0--0--0--0-|
C-0-----0-----0-----0--0--0--0--0--0--0-----0-----0-----0--0--0--0--0--0-|
pm.     .     .     .  .  .  .  .  .  .     .     .     .  .  .  .  .  .

Guitar 1
D------------------------------------------------------------------------|
A------------------------------------------------------------------------|
F----------4-----6-----------------------------4-----6-------------------|
C----4-----------------------------------4-------------------------------|
G------------------------------------------------------------------------|
C-4-----4-----4-----4--4--4--4--4--4--4-----4-----4-----4--4--4--4--4--4-|
pm.     .     .     .  .  .  .  .  .  .     .     .     .  .  .  .  .  .

Guitar 2
D------------------------------------------------------------------------|
A------------------------------------------------------------------------|
F------------------------------------------------------------------------|
C----4-----6-----7-----------------------4-----6-----7-------------------|
G------------------------------------------------------------------------|
C-4-----4-----4-----4--4--4--4--4--4--4-----4-----4-----4--4--4--4--4--4-|
pm.     .     .     .  .  .  .  .  .  .     .     .     .  .  .  .  .  .

Guitar 1
D------------------------------------------------------------------------|
A------------------------------------------------------------------------|
F----2-----4-----------------------------2-----4-------------------------|
C----------------6-----------------------------------6-------------------|
G------------------------------------------------------------------------|
C-0-----0-----0-----0--0--0--0--0--0--0-----0-----0-----0--0--0--0--0--0-|
pm.     .     .     .  .  .  .  .  .  .     .     .     .  .  .  .  .  .

Guitar 2
D------------------------------------------------------------------------|
A------------------------------------------------------------------------|
F------------------------------------------------------------------------|
C----4-----6-----2-----------------------4-----6-----2-------------------|
G------------------------------------------------------------------------|
C-0-----0-----0-----0--0--0--0--0--0--0-----0-----0-----0--0--0--0--0--0-|
pm.     .     .     .  .  .  .  .  .  .     .     .     .  .  .  .  .  .

Pre Chorus

Guitar 1 & 2
D-------------------------------------------------------------------------|
A-------------------5~~~~~~~~~~~~~~~~-------------------5~~~~~~~~~~~~~~~~-|
F-------------------4~~~~~~~~~~~~~~~~-------------------4~~~~~~~~~~~~~~~~-|
C-2~~~~~~~~~~~~~~~~~~~~~~~~~~~~~~~~~~-2~~~~~~~~~~~~~~~~~~~~~~~~~~~~~~~~~~
G-2~~~~~~~~~~~~~~~~~~~~~~~~~~~~~~~~~~-2~~~~~~~~~~~~~~~~~~~~~~~~~~~~~~~~~~
C-2~~~~~~~~~~~~~~~~~~~~~~~~~~~~~~~~~~-2~~~~~~~~~~~~~~~~~~~~~~~~~~~~~~~~~~

Guitar 1 & 2
D------------------------------------------------------------------------|
A------------------------------------------------------------------------|
F------------------------------------------------------------------------|
C-0~~~~~~~~~~~~~~~~~~~~~~~~~~~~~~~~~~------------------------------------|
G-0~~~~~~~~~~~~~~~~~~~~~~~~~~~~~~~~~~------------------------------------|
C-0~~~~~~~~~~~~~~~~~~~~~~~~~~~~~~~~~~------------------------------------|

Chorus

Guitar 1
D---------------------------------------------------------------|
A---------------------------------------------------------------|
F---------------------------------------------------------------|
C-4~-4~~~-4~~~-4~-4~~~-4~~~-4~~~-4~-4~~~-4~~~-4~-4~~~-4~~~-4~~~-|
G-4~-4~~~-4~~~-4~-4~~~-4~~~-4~~~-4~-4~~~-4~~~-4~-4~~~-4~~~-4~~~-|
C-4~-4~~~-4~~~-4~-4~~~-4~~~-4~~~-4~-4~~~-4~~~-4~-4~~~-4~~~-4~~~-|

Guitar 2
D---------------------------------------------------------------|
A---------------------------------------------------------------|
F-11-11~~-11~~-11-11~~-11~~-11~~-14-14~~-14~~-14-13~~-13~~-13~~-|
C-x--x----x----x--x----x----x----x--x----x----x--x----x----x----|
G-9~-9~~~-9~~~-9~-9~~~-9~~~-9~~~-12-12~~-12~~-12-11~~-11~~-11~~-|
C---------------------------------------------------------------|

Guitar 1
D---------------------------------------------------------------|
A---------------------------------------------------------------|
F---------------------------------------------------------------|
C-0~-0~~~-0~~~-0~-0~~~-0~~~-0~~~-0~-0~~~-0~~~-0~-0~~~-0~~~-0~~~-|
G-0~-0~~~-0~~~-0~-0~~~-0~~~-0~~~-0~-0~~~-0~~~-0~-0~~~-0~~~-0~~~-|
C-0~-0~~~-0~~~-0~-0~~~-0~~~-0~~~-0~-0~~~-0~~~-0~-0~~~-0~~~-0~~~-|

Guitar 2
D---------------------------------------------------------------|
A---------------------------------------------------------------|
F-9~-9~~~-9~~~-9~-9~~~-9~~~-9~~~-9~-9~~~-9~~~-9~-9~~~-9~~~-9~~~-|
C-x--x----x----x--x----x----x----x--x----x----x--x----x----x----|
G-7~-7~~~-7~~~-7~-7~~~-7~~~-7~~~-7~-7~~~-7~~~-7~-7~~~-7~~~-7~~~-|
C---------------------------------------------------------------|

Guitar 1
D---------------------------------------------------------------|
A---------------------------------------------------------------|
F---------------------------------------------------------------|
C-4~-4~~~-4~~~-4~-4~~~-4~~~-4~~~-4~-4~~~-4~~~-4~-4~~~-4~~~-4~~~-|
G-4~-4~~~-4~~~-4~-4~~~-4~~~-4~~~-4~-4~~~-4~~~-4~-4~~~-4~~~-4~~~-|
C-4~-4~~~-4~~~-4~-4~~~-4~~~-4~~~-4~-4~~~-4~~~-4~-4~~~-4~~~-4~~~-|

Guitar 2
D---------------------------------------------------------------|
A---------------------------------------------------------------|
F-11-11~~-11~~-11-11~~-11~~-11~~-13-13~~-13~~-13-14~~-14~~-14~~-|
C-x--x----x----x--x----x----x----x--x----x----x--x----x----x----|
G-9~-9~~~-9~~~-9~-9~~~-9~~~-9~~~-11-11~~-11~~-11-12~~-12~~-12~~-|
C---------------------------------------------------------------|

Guitar 1
D----------------------------------------------------------------|
A----------------------------------------------------------------|
F----------------------------------------------------------------|
C-2~-2~~~-2~~~-2~-2~~~-2~~~-2~~~-2~-2~~~-2~~~-2~-2~-2~~~-2~~~-2~-|
G-2~-2~~~-2~~~-2~-2~~~-2~~~-2~~~-2~-2~~~-2~~~-2~-2~-2~~~-2~~~-2~-|
C-2~-2~~~-2~~~-2~-2~~~-2~~~-2~~~-2~-2~~~-2~~~-2~-2~-2~~~-2~~~-2~-|
pm                               .  .    .    .  .  .    .    .

Guitar 2
D----------------------------------------------------------------|
A----------------------------------------------------------------|
F-18-18~~-18~~-18-18~~-18~~-18~~-16-16~~-16~~-16-16-16~~-16~~-16-|
C-x--x----x----x--x----x----x----x--x----x----x--x--x----x----x--|
G-16-16~~-16~~-16-16~~-16~~-16~~-14-14~~-14~~-14-14-14~~-14~~-14-|
C----------------------------------------------------------------|

Guitar 1
D---------------------------------------------------------------|
A---------------------------------------------------------------|
F---------------------------------------------------------------|
C-0~-0~~~-0~~~-0~-0~~~-0~~~-0~~~-0~-0~~~-0~~~-0~-0~~~-0~~~-0~~~-|
G-0~-0~~~-0~~~-0~-0~~~-0~~~-0~~~-0~-0~~~-0~~~-0~-0~~~-0~~~-0~~~-|
C-0~-0~~~-0~~~-0~-0~~~-0~~~-0~~~-0~-0~~~-0~~~-0~-0~~~-0~~~-0~~~-|

Guitar 2
D---------------------------------------------------------------|
A---------------------------------------------------------------|
F-14-14~~-14~~-14-14~~-14~~-14~~-14-14~~-14~~-14-13~~-13~~-13~~-|
C-x--x----x----x--x----x----x----x--x----x----x--x----x----x----|
G-12-12~~-12~~-12-12~~-12~~-12~~-12-12~~-12~~-12-11~~-11~~-11~~-|
C---------------------------------------------------------------|

Guitar 1
D---------------------------------------------------------------|
A---------------------------------------------------------------|
F---------------------------------------------------------------|
C-2~-2~~~-2~~~-2~-2~~~-2~~~-2~~~-2~-2~~~-2~~~-2~-2~~~-2~~~-2~~~-|
G-2~-2~~~-2~~~-2~-2~~~-2~~~-2~~~-2~-2~~~-2~~~-2~-2~~~-2~~~-2~~~-|
C-2~-2~~~-2~~~-2~-2~~~-2~~~-2~~~-2~-2~~~-2~~~-2~-2~~~-2~~~-2~~~-|

Guitar 2
D---------------------------------------------------------------|
A---------------------------------------------------------------|
F-9~-9~~~-9~~~-9~-9~~~-9~~~-9~~~-9~-9~~~-9~~~-9~-9~~~-9~~~-9~~~-|
C-x--x----x----x--x----x----x----x--x----x----x--x----x----x----|
G-7~-7~~~-7~~~-7~-7~~~-7~~~-7~~~-7~-7~~~-7~~~-7~-7~~~-7~~~-7~~~-|
C---------------------------------------------------------------|

Break Off

Guitar 1
D-----------------------------------------------------------------------|
A-----------------------------------------------------------------------|
F-----------------------------------------------------------------------|
C-4~----------------4~----------------4~----------------12\-------------|
G-4~----------------4~----------------4~----------------12\-------------|
C-4~----------------4~----------------4~----------------12\-------------|

Guitar 2
D------------------------------------------------------------------------|
A------------------------------------------------------------------------|
F------------------------------------------------------------------------|
C----4-----6-----7-----------------------4-----6-----7-------------------|
G------------------------------------------------------------------------|
C-4-----4-----4-----4--4--4--4--4--4--4-----4-----4-----4--4--4--4--4--4-|
pm.     .     .     .  .  .  .  .  .  .     .     .     .  .  .  .  .  .

Verse 2

Guitar 1 & 2
D------------------------------------------------------------------------|
A------------------------------------------------------------------------|
F------------------------------------------------------------------------|
C----4-----6-----7-----------------------4-----6-----7-------------------|
G------------------------------------------------------------------------|
C-4-----4-----4-----4--4--4--4--4--4--4-----4-----4-----4--4--4--4--4--4-|
pm.     .     .     .  .  .  .  .  .  .     .     .     .  .  .  .  .  .

Guitar 1 & 2
D------------------------------------------------------------------------|
A------------------------------------------------------------------------|
F------------------------------------------------------------------------|
C----4-----6-----2-----------------------4-----6-----2-------------------|
G------------------------------------------------------------------------|
C-0-----0-----0-----0--0--0--0--0--0--0-----0-----0-----0--0--0--0--0--0-|
pm.     .     .     .  .  .  .  .  .  .     .     .     .  .  .  .  .  .

Guitar 1 & 2
D------------------------------------------------------------------------|
A------------------------------------------------------------------------|
F------------------------------------------------------------------------|
C----4-----6-----7-----------------------4-----6-----7-------------------|
G------------------------------------------------------------------------|
C-4-----4-----4-----4--4--4--4--4--4--4-----4-----4-----4--4--4--4--4--4-|
pm.     .     .     .  .  .  .  .  .  .     .     .     .  .  .  .  .  .

Guitar 1 & 2
D------------------------------------------------------------------------|
A------------------------------------------------------------------------|
F------------------------------------------------------------------------|
C----4-----6-----2-----------------------4-----6-----2--0--0--0--0--0--0-|
G-------------------------------------------------------0--0--0--0--0--0-|
C-0-----0-----0-----0--0--0--0--0--0--0-----0-----0-----0--0--0--0--0--0-|
pm.     .     .     .  .  .  .  .  .  .     .     .     .  .  .  .  .  .

Pre Chorus

Guitar 1 & 2
D-------------------------------------------------------------------------|
A-------------------5~~~~~~~~~~~~~~~~-------------------5~~~~~~~~~~~~~~~~-|
F-------------------4~~~~~~~~~~~~~~~~-------------------4~~~~~~~~~~~~~~~~-|
C-2~~~~~~~~~~~~~~~~~~~~~~~~~~~~~~~~~~-2~~~~~~~~~~~~~~~~~~~~~~~~~~~~~~~~~~
G-2~~~~~~~~~~~~~~~~~~~~~~~~~~~~~~~~~~-2~~~~~~~~~~~~~~~~~~~~~~~~~~~~~~~~~~
C-2~~~~~~~~~~~~~~~~~~~~~~~~~~~~~~~~~~-2~~~~~~~~~~~~~~~~~~~~~~~~~~~~~~~~~~

Guitar 1 & 2
D------------------------------------------------------------------------|
A------------------------------------------------------------------------|
F------------------------------------------------------------------------|
C-0~~~~~~~~~~~~~~~~~~~~~~~~~~~~~~~~~~------------------------------------|
G-0~~~~~~~~~~~~~~~~~~~~~~~~~~~~~~~~~~------------------------------------|
C-0~~~~~~~~~~~~~~~~~~~~~~~~~~~~~~~~~~------------------------------------|

Chorus

Guitar 1
D---------------------------------------------------------------|
A---------------------------------------------------------------|
F---------------------------------------------------------------|
C-4~-4~~~-4~~~-4~-4~~~-4~~~-4~~~-4~-4~~~-4~~~-4~-4~~~-4~~~-4~~~-|
G-4~-4~~~-4~~~-4~-4~~~-4~~~-4~~~-4~-4~~~-4~~~-4~-4~~~-4~~~-4~~~-|
C-4~-4~~~-4~~~-4~-4~~~-4~~~-4~~~-4~-4~~~-4~~~-4~-4~~~-4~~~-4~~~-|

Guitar 2
D---------------------------------------------------------------|
A---------------------------------------------------------------|
F-11-11~~-11~~-11-11~~-11~~-11~~-14-14~~-14~~-14-13~~-13~~-13~~-|
C-x--x----x----x--x----x----x----x--x----x----x--x----x----x----|
G-9~-9~~~-9~~~-9~-9~~~-9~~~-9~~~-12-12~~-12~~-12-11~~-11~~-11~~-|
C---------------------------------------------------------------|

Guitar 1
D---------------------------------------------------------------|
A---------------------------------------------------------------|
F---------------------------------------------------------------|
C-0~-0~~~-0~~~-0~-0~~~-0~~~-0~~~-0~-0~~~-0~~~-0~-0~~~-0~~~-0~~~-|
G-0~-0~~~-0~~~-0~-0~~~-0~~~-0~~~-0~-0~~~-0~~~-0~-0~~~-0~~~-0~~~-|
C-0~-0~~~-0~~~-0~-0~~~-0~~~-0~~~-0~-0~~~-0~~~-0~-0~~~-0~~~-0~~~-|

Guitar 2
D---------------------------------------------------------------|
A---------------------------------------------------------------|
F-9~-9~~~-9~~~-9~-9~~~-9~~~-9~~~-9~-9~~~-9~~~-9~-9~~~-9~~~-9~~~-|
C-x--x----x----x--x----x----x----x--x----x----x--x----x----x----|
G-7~-7~~~-7~~~-7~-7~~~-7~~~-7~~~-7~-7~~~-7~~~-7~-7~~~-7~~~-7~~~-|
C---------------------------------------------------------------|

Guitar 1
D---------------------------------------------------------------|
A---------------------------------------------------------------|
F---------------------------------------------------------------|
C-4~-4~~~-4~~~-4~-4~~~-4~~~-4~~~-4~-4~~~-4~~~-4~-4~~~-4~~~-4~~~-|
G-4~-4~~~-4~~~-4~-4~~~-4~~~-4~~~-4~-4~~~-4~~~-4~-4~~~-4~~~-4~~~-|
C-4~-4~~~-4~~~-4~-4~~~-4~~~-4~~~-4~-4~~~-4~~~-4~-4~~~-4~~~-4~~~-|

Guitar 2
D---------------------------------------------------------------|
A---------------------------------------------------------------|
F-11-11~~-11~~-11-11~~-11~~-11~~-13-13~~-13~~-13-14~~-14~~-14~~-|
C-x--x----x----x--x----x----x----x--x----x----x--x----x----x----|
G-9~-9~~~-9~~~-9~-9~~~-9~~~-9~~~-11-11~~-11~~-11-12~~-12~~-12~~-|
C---------------------------------------------------------------|

Guitar 1
D----------------------------------------------------------------|
A----------------------------------------------------------------|
F----------------------------------------------------------------|
C-2~-2~~~-2~~~-2~-2~~~-2~~~-2~~~-2~-2~~~-2~~~-2~-2~-2~~~-2~~~-2~-|
G-2~-2~~~-2~~~-2~-2~~~-2~~~-2~~~-2~-2~~~-2~~~-2~-2~-2~~~-2~~~-2~-|
C-2~-2~~~-2~~~-2~-2~~~-2~~~-2~~~-2~-2~~~-2~~~-2~-2~-2~~~-2~~~-2~-|
pm                               .  .    .    .  .  .    .    .

Guitar 2
D----------------------------------------------------------------|
A----------------------------------------------------------------|
F-18-18~~-18~~-18-18~~-18~~-18~~-16-16~~-16~~-16-16-16~~-16~~-16-|
C-x--x----x----x--x----x----x----x--x----x----x--x--x----x----x--|
G-16-16~~-16~~-16-16~~-16~~-16~~-14-14~~-14~~-14-14-14~~-14~~-14-|
C----------------------------------------------------------------|

Guitar 1
D---------------------------------------------------------------|
A---------------------------------------------------------------|
F---------------------------------------------------------------|
C-0~-0~~~-0~~~-0~-0~~~-0~~~-0~~~-0~-0~~~-0~~~-0~-0~~~-0~~~-0~~~-|
G-0~-0~~~-0~~~-0~-0~~~-0~~~-0~~~-0~-0~~~-0~~~-0~-0~~~-0~~~-0~~~-|
C-0~-0~~~-0~~~-0~-0~~~-0~~~-0~~~-0~-0~~~-0~~~-0~-0~~~-0~~~-0~~~-|

Guitar 2
D---------------------------------------------------------------|
A---------------------------------------------------------------|
F-14-14~~-14~~-14-14~~-14~~-14~~-14-14~~-14~~-14-13~~-13~~-13~~-|
C-x--x----x----x--x----x----x----x--x----x----x--x----x----x----|
G-12-12~~-12~~-12-12~~-12~~-12~~-12-12~~-12~~-12-11~~-11~~-11~~-|
C---------------------------------------------------------------|

Guitar 1
D---------------------------------------------------------------|
A---------------------------------------------------------------|
F---------------------------------------------------------------|
C-2~-2~~~-2~~~-2~-2~~~-2~~~-2~~~-2~-2~~~-2~~~-2~-2~~~-2~~~-2~~~-|
G-2~-2~~~-2~~~-2~-2~~~-2~~~-2~~~-2~-2~~~-2~~~-2~-2~~~-2~~~-2~~~-|
C-2~-2~~~-2~~~-2~-2~~~-2~~~-2~~~-2~-2~~~-2~~~-2~-2~~~-2~~~-2~~~-|

Guitar 2
D---------------------------------------------------------------|
A---------------------------------------------------------------|
F-9~-9~~~-9~~~-9~-9~~~-9~~~-9~~~-9~-9~~~-9~~~-9~-9~~~-9~~~-9~~~-|
C-x--x----x----x--x----x----x----x--x----x----x--x----x----x----|
G-7~-7~~~-7~~~-7~-7~~~-7~~~-7~~~-7~-7~~~-7~~~-7~-7~~~-7~~~-7~~~-|
C---------------------------------------------------------------|

Interlude 1

Guitar 1
D------------------------------------------------------------------------|
A------------------------------------------------------------------------|
F----4-----6-----7-----------------------4-----6-----7-------------------|
C-4-----4-----4-----4--4--4--4--4--4--4-----4-----4-----4--4--4--4--4--4-|
G------------------------------------------------------------------------|
C------------------------------------------------------------------------|
pm.     .     .     .  .  .  .  .  .  .     .     .     .  .  .  .  .  .

Guitar 2
D-----------------------------------------------------------------------|
A-----------------------------------------------------------------------|
F-----------------------------------------------------------------------|
C-4~~~~~~~~~~~~~~~~~~~~~~~~~~~~~~~~~~~~~~~~~~~~~~~~~~~~~~~~~~~~~~~~~~~~~
G-4~~~~~~~~~~~~~~~~~~~~~~~~~~~~~~~~~~~~~~~~~~~~~~~~~~~~~~~~~~~~~~~~~~~~~
C-4~~~~~~~~~~~~~~~~~~~~~~~~~~~~~~~~~~~~~~~~~~~~~~~~~~~~~~~~~~~~~~~~~~~~~

Guitar 1
D------------------------------------------------------------------------|
A------------------------------------------------------------------------|
F----1-----2-----4-----------------------1-----2-----4-------------------|
C-0-----0-----0-----0--0--0--0--0--0--0-----0-----0-----0--0--0--0--0--0-|
G------------------------------------------------------------------------|
C------------------------------------------------------------------------|
pm.     .     .     .  .  .  .  .  .  .     .     .     .  .  .  .  .  .

Guitar 2
D-----------------------------------------------------------------------|
A-----------------------------------------------------------------------|
F-----------------------------------------------------------------------|
C-0~~~~~~~~~~~~~~~~~~~~~~~~~~~~~~~~~~~~~~~~~~~~~~~~~~~~~~~~~~~~~~~~~~~~~
G-0~~~~~~~~~~~~~~~~~~~~~~~~~~~~~~~~~~~~~~~~~~~~~~~~~~~~~~~~~~~~~~~~~~~~~
C-0~~~~~~~~~~~~~~~~~~~~~~~~~~~~~~~~~~~~~~~~~~~~~~~~~~~~~~~~~~~~~~~~~~~~~

Guitar 1
D------------------------------------------------------------------------|
A------------------------------------------------------------------------|
F----2-----4-----6-----------------------2-----4-----6-------------------|
C-2-----2-----2-----2--2--2--2--2--2--2-----2-----2-----2--2--2--2--2--2-|
G------------------------------------------------------------------------|
C------------------------------------------------------------------------|
pm.     .     .     .  .  .  .  .  .  .     .     .     .  .  .  .  .  .

Guitar 2
D-----------------------------------------------------------------------|
A-----------------------------------------------------------------------|
F-----------------------------------------------------------------------|
C-2~~~~~~~~~~~~~~~~~~~~~~~~~~~~~~~~~~~~~~~~~~~~~~~~~~~~~~~~~~~~~~~~~~~~~
G-2~~~~~~~~~~~~~~~~~~~~~~~~~~~~~~~~~~~~~~~~~~~~~~~~~~~~~~~~~~~~~~~~~~~~~
C-2~~~~~~~~~~~~~~~~~~~~~~~~~~~~~~~~~~~~~~~~~~~~~~~~~~~~~~~~~~~~~~~~~~~~~

Guitar 1
D------------------------------------------------------------------------|
A------------------------------------------------------------------------|
F------------------------------------------------------------------------|
C----4-----6-----7-----------------------4-----6-----7-------------------|
G-4-----4-----4-----4--4--4--4--4--4--4-----4-----4-----4--4--4--4--4--4-|
C------------------------------------------------------------------------|
pm.     .     .     .  .  .  .  .  .  .     .     .     .  .  .  .  .  .

Guitar 2
D-----------------------------------------------------------------------|
A-----------------------------------------------------------------------|
F-6~~~~~~~~~~~~~~~~~~~~~~~~~~~~~~~~~~~~~~~~~~~~~~~~~~~~~~~~~~~~~~~~~~~~~
C-6~~~~~~~~~~~~~~~~~~~~~~~~~~~~~~~~~~~~~~~~~~~~~~~~~~~~~~~~~~~~~~~~~~~~~
G-4~~~~~~~~~~~~~~~~~~~~~~~~~~~~~~~~~~~~~~~~~~~~~~~~~~~~~~~~~~~~~~~~~~~~~
C-----------------------------------------------------------------------

Interlude 2

Guitar 1
D------------------------------------------------------------------------|
A------------------------------------------------------------------------|
F----4-----6-----7-----------------------4-----6-----7-------------------|
C-4-----4-----4-----4--4--4--4--4--4--4-----4-----4-----4--4--4--4--4--4-|
G------------------------------------------------------------------------|
C------------------------------------------------------------------------|
pm.     .     .     .  .  .  .  .  .  .     .     .     .  .  .  .  .  .

Guitar 2
D-----------------------------------------------------------------------|
A-----------------------------------------------------------------------|
F-----------------------------------------------------------------------|
C-4--4--4--4--4--4--4------------------4--4--4--4--4--4--4--------------|
G-4--4--4--4--4--4--4------------------4--4--4--4--4--4--4--------------|
C-4--4--4--4--4--4--4------------------4--4--4--4--4--4--4--------------|
pm.  .  .  .  .  .  .                  .  .  .  .  .  .  .

Guitar 1
D------------------------------------------------------------------------|
A------------------------------------------------------------------------|
F----1-----2-----4-----------------------1-----2-----4-------------------|
C-0-----0-----0-----0--0--0--0--0--0--0-----0-----0-----0--0--0--0--0--0-|
G------------------------------------------------------------------------|
C------------------------------------------------------------------------|
pm.     .     .     .  .  .  .  .  .  .     .     .     .  .  .  .  .  .

Guitar 2
D-----------------------------------------------------------------------|
A-----------------------------------------------------------------------|
F-----------------------------------------------------------------------|
C-0--0--0--0--0--0--0------------------0--0--0--0--0--0--0--------------|
G-0--0--0--0--0--0--0------------------0--0--0--0--0--0--0--------------|
C-0--0--0--0--0--0--0------------------0--0--0--0--0--0--0--------------|
pm.  .  .  .  .  .  .                  .  .  .  .  .  .  .

Guitar 1
D------------------------------------------------------------------------|
A------------------------------------------------------------------------|
F----2-----4-----6-----------------------2-----4-----6-------------------|
C-2-----2-----2-----2--2--2--2--2--2--2-----2-----2-----2--2--2--2--2--2-|
G------------------------------------------------------------------------|
C------------------------------------------------------------------------|
pm.     .     .     .  .  .  .  .  .  .     .     .     .  .  .  .  .  .

Guitar 2
D-----------------------------------------------------------------------|
A-----------------------------------------------------------------------|
F-----------------------------------------------------------------------|
C-2--2--2--2--2--2--2------------------2--2--2--2--2--2--2--------------|
G-2--2--2--2--2--2--2------------------2--2--2--2--2--2--2--------------|
C-2--2--2--2--2--2--2------------------2--2--2--2--2--2--2--------------|
pm.  .  .  .  .  .  .                  .  .  .  .  .  .  .

Guitar 1
D------------------------------------------------------------------------|
A------------------------------------------------------------------------|
F------------------------------------------------------------------------|
C----4-----6-----7-----------------------4-----6-----7-------------------|
G-4-----4-----4-----4--4--4--4--4--4--4-----4-----4-----4--4--4--4--4--4-|
C------------------------------------------------------------------------|
pm.     .     .     .  .  .  .  .  .  .     .     .     .  .  .  .  .  .

Guitar 2
D-------------------------------------------------------------------------|
A-------------------------------------------------------------------------|
F-6--6--6--6--6--6--6------------------6--6--6--6--6--6--6--6--6--6--6--6-|
C-6--6--6--6--6--6--6------------------6--6--6--6--6--6--6--6--6--6--6--6-|
G-4--4--4--4--4--4--4------------------4--4--4--4--4--4--4--4--4--4--4--4-|
C-------------------------------------------------------------------------|
pm.  .  .  .  .  .  .                  .  .  .  .  .  .

Interlude 3

Guitar 1
D------------------------------------------------------------------------|
A------------------------------------------------------------------------|
F----4-----6-----7-----------------------4-----6-----7-------------------|
C-4-----4-----4-----4--4--4--4--4--4--4-----4-----4-----4--4--4--4--4--4-|
G------------------------------------------------------------------------|
C------------------------------------------------------------------------|
pm.     .     .     .  .  .  .  .  .  .     .     .     .  .  .  .  .  .

Guitar 2
D-------------------------------------------------------------------------|
A-------------------------------------------------------------------------|
F-11-11-11-11-11-11-11-11-11-11-11-11-11-11-11-11-11-11-11-11-11-11-11-11-|
C-x--x--x--x--x--x--x--x--x--x--x--x--x--x--x--x--x--x--x--x--x--x--x--x--|
G-9--9--9--9--9--9--9--9--9--9--9--9--9--9--9--9--9--9--9--9--9--9--9--9--|
C-------------------------------------------------------------------------|

Guitar 1
D------------------------------------------------------------------------|
A------------------------------------------------------------------------|
F----1-----2-----4-----------------------1-----2-----4-------------------|
C-0-----0-----0-----0--0--0--0--0--0--0-----0-----0-----0--0--0--0--0--0-|
G------------------------------------------------------------------------|
C------------------------------------------------------------------------|
pm.     .     .     .  .  .  .  .  .  .     .     .     .  .  .  .  .  .

Guitar 2
D-------------------------------------------------------------------------|
A-------------------------------------------------------------------------|
F-13-13-13-13-13-13-13-13-13-13-13-13-13-13-13-13-13-13-13-13-13-13-13-13-|
C-x--x--x--x--x--x--x--x--x--x--x--x--x--x--x--x--x--x--x--x--x--x--x--x--|
G-11-11-11-11-11-11-11-11-11-11-11-11-11-11-11-11-11-11-11-11-11-11-11-11-|
C-------------------------------------------------------------------------|

Guitar 1
D------------------------------------------------------------------------|
A------------------------------------------------------------------------|
F----2-----4-----6-----------------------2-----4-----6-------------------|
C-2-----2-----2-----2--2--2--2--2--2--2-----2-----2-----2--2--2--2--2--2-|
G------------------------------------------------------------------------|
C------------------------------------------------------------------------|
pm.     .     .     .  .  .  .  .  .  .     .     .     .  .  .  .  .  .

Guitar 2
D-------------------------------------------------------------------------|
A-------------------------------------------------------------------------|
F-14-14-14-14-14-14-14-14-14-14-14-14-14-14-14-14-14-14-14-14-14-14-14-14-|
C-x--x--x--x--x--x--x--x--x--x--x--x--x--x--x--x--x--x--x--x--x--x--x--x--|
G-12-12-12-12-12-12-12-12-12-12-12-12-12-12-12-12-12-12-12-12-12-12-12-12-|
C-------------------------------------------------------------------------|

Guitar 1
D------------------------------------------------------------------------|
A------------------------------------------------------------------------|
F------------------------------------------------------------------------|
C----4-----6-----7-----4-----6-----7-----4-----6-----7-----4-----6-----4-|
G-4-----4-----4-----4-----4-----4-----4-----4-----4-----4-----4-----4----|
C------------------------------------------------------------------------|
pm.     .     .     .     .     .     .     .     .     .     .     .

Guitar 2
D-------------------------------------------------------------------------|
A-------------------------------------------------------------------------|
F-13-13-13-13-13-13-13-13-13-13-13-13-13-13-13-13-13-13-13-13-13-13-13-13-|
C-x--x--x--x--x--x--x--x--x--x--x--x--x--x--x--x--x--x--x--x--x--x--x--x--|
G-11-11-11-11-11-11-11-11-11-11-11-11-11-11-11-11-11-11-11-11-11-11-11-11-|
C-------------------------------------------------------------------------|

Bridge

Guitar 2
D---------------------------------------------------------------|
A-10-10~~-10~~-10-10~~-10~~-10~~-10-10~~-10~~-10-10~~-10~~-10~~-|
F----11~~---------11~~--------------11~~--------------11~~------|
C-11-11~~-11~~-11-11~~-11~~-11~~-11-11~~-11~~-11-11~~-11~~-11~~-|
G-9~-9~~~-9~~~-9~-9~~~-9~~~-9~~~-9~-9~~~-9~~~-9~-9~~~-9~~~-9~~~-|
C---------------------------------------------------------------|

Guitar 2
D--------------------------------------------------------------|
A-9~-9~~~-9~~~-9~-9~~~-9~~~-9~~~-9~-9~~~-9~~~-9~-9-------------|
F---------11~~--------------11~~----11~~---------11------------|
C-11-11~~-11~~-11-11~~-11~~-11~~-11-11~~-11~~-11-11------------|
G-9~-9~~~-9~~~-9~-9~~~-9~~~-9~~~-9~-9~~~-9~~~-9~-9-------------|
C--------------------------------------------------------------|

Chorus

Guitar 1
D---------------------------------------------------------------|
A---------------------------------------------------------------|
F---------------------------------------------------------------|
C-4~-4~~~-4~~~-4~-4~~~-4~~~-4~~~-4~-4~~~-4~~~-4~-4~~~-4~~~-4~~~-|
G-4~-4~~~-4~~~-4~-4~~~-4~~~-4~~~-4~-4~~~-4~~~-4~-4~~~-4~~~-4~~~-|
C-4~-4~~~-4~~~-4~-4~~~-4~~~-4~~~-4~-4~~~-4~~~-4~-4~~~-4~~~-4~~~-|

Guitar 2
D---------------------------------------------------------------|
A---------------------------------------------------------------|
F-11-11~~-11~~-11-11~~-11~~-11~~-14-14~~-14~~-14-13~~-13~~-13~~-|
C-x--x----x----x--x----x----x----x--x----x----x--x----x----x----|
G-9~-9~~~-9~~~-9~-9~~~-9~~~-9~~~-12-12~~-12~~-12-11~~-11~~-11~~-|
C---------------------------------------------------------------|

Guitar 1
D---------------------------------------------------------------|
A---------------------------------------------------------------|
F---------------------------------------------------------------|
C-0~-0~~~-0~~~-0~-0~~~-0~~~-0~~~-0~-0~~~-0~~~-0~-0~~~-0~~~-0~~~-|
G-0~-0~~~-0~~~-0~-0~~~-0~~~-0~~~-0~-0~~~-0~~~-0~-0~~~-0~~~-0~~~-|
C-0~-0~~~-0~~~-0~-0~~~-0~~~-0~~~-0~-0~~~-0~~~-0~-0~~~-0~~~-0~~~-|

Guitar 2
D---------------------------------------------------------------|
A---------------------------------------------------------------|
F-9~-9~~~-9~~~-9~-9~~~-9~~~-9~~~-9~-9~~~-9~~~-9~-9~~~-9~~~-9~~~-|
C-x--x----x----x--x----x----x----x--x----x----x--x----x----x----|
G-7~-7~~~-7~~~-7~-7~~~-7~~~-7~~~-7~-7~~~-7~~~-7~-7~~~-7~~~-7~~~-|
C---------------------------------------------------------------|

Guitar 1
D---------------------------------------------------------------|
A---------------------------------------------------------------|
F---------------------------------------------------------------|
C-4~-4~~~-4~~~-4~-4~~~-4~~~-4~~~-4~-4~~~-4~~~-4~-4~~~-4~~~-4~~~-|
G-4~-4~~~-4~~~-4~-4~~~-4~~~-4~~~-4~-4~~~-4~~~-4~-4~~~-4~~~-4~~~-|
C-4~-4~~~-4~~~-4~-4~~~-4~~~-4~~~-4~-4~~~-4~~~-4~-4~~~-4~~~-4~~~-|

Guitar 2
D---------------------------------------------------------------|
A---------------------------------------------------------------|
F-11-11~~-11~~-11-11~~-11~~-11~~-13-13~~-13~~-13-14~~-14~~-14~~-|
C-x--x----x----x--x----x----x----x--x----x----x--x----x----x----|
G-9~-9~~~-9~~~-9~-9~~~-9~~~-9~~~-11-11~~-11~~-11-12~~-12~~-12~~-|
C---------------------------------------------------------------|

Guitar 1
D----------------------------------------------------------------|
A----------------------------------------------------------------|
F----------------------------------------------------------------|
C-2~-2~~~-2~~~-2~-2~~~-2~~~-2~~~-2~-2~~~-2~~~-2~-2~-2~~~-2~~~-2~-|
G-2~-2~~~-2~~~-2~-2~~~-2~~~-2~~~-2~-2~~~-2~~~-2~-2~-2~~~-2~~~-2~-|
C-2~-2~~~-2~~~-2~-2~~~-2~~~-2~~~-2~-2~~~-2~~~-2~-2~-2~~~-2~~~-2~-|
pm                               .  .    .    .  .  .    .    .

Guitar 2
D----------------------------------------------------------------|
A----------------------------------------------------------------|
F-18-18~~-18~~-18-18~~-18~~-18~~-16-16~~-16~~-16-16-16~~-16~~-16-|
C-x--x----x----x--x----x----x----x--x----x----x--x--x----x----x--|
G-16-16~~-16~~-16-16~~-16~~-16~~-14-14~~-14~~-14-14-14~~-14~~-14-|
C----------------------------------------------------------------|

Guitar 1
D---------------------------------------------------------------|
A---------------------------------------------------------------|
F---------------------------------------------------------------|
C-0~-0~~~-0~~~-0~-0~~~-0~~~-0~~~-0~-0~~~-0~~~-0~-0~~~-0~~~-0~~~-|
G-0~-0~~~-0~~~-0~-0~~~-0~~~-0~~~-0~-0~~~-0~~~-0~-0~~~-0~~~-0~~~-|
C-0~-0~~~-0~~~-0~-0~~~-0~~~-0~~~-0~-0~~~-0~~~-0~-0~~~-0~~~-0~~~-|

Guitar 2
D---------------------------------------------------------------|
A---------------------------------------------------------------|
F-14-14~~-14~~-14-14~~-14~~-14~~-14-14~~-14~~-14-13~~-13~~-13~~-|
C-x--x----x----x--x----x----x----x--x----x----x--x----x----x----|
G-12-12~~-12~~-12-12~~-12~~-12~~-12-12~~-12~~-12-11~~-11~~-11~~-|
C---------------------------------------------------------------|

Guitar 1
D---------------------------------------------------------------|
A---------------------------------------------------------------|
F---------------------------------------------------------------|
C-2~-2~~~-2~~~-2~-2~~~-2~~~-2~~~-2~-2~~~-2~~~-2~-2~~~-2~~~-2~~~-|
G-2~-2~~~-2~~~-2~-2~~~-2~~~-2~~~-2~-2~~~-2~~~-2~-2~~~-2~~~-2~~~-|
C-2~-2~~~-2~~~-2~-2~~~-2~~~-2~~~-2~-2~~~-2~~~-2~-2~~~-2~~~-2~~~-|

Guitar 2
D---------------------------------------------------------------|
A---------------------------------------------------------------|
F-9~-9~~~-9~~~-9~-9~~~-9~~~-9~~~-9~-9~~~-9~~~-9~-9~~~-9~~~-9~~~-|
C-x--x----x----x--x----x----x----x--x----x----x--x----x----x----|
G-7~-7~~~-7~~~-7~-7~~~-7~~~-7~~~-7~-7~~~-7~~~-7~-7~~~-7~~~-7~~~-|
C---------------------------------------------------------------|

Outro

Guitar 1
D-----------------------------------------------------------------------|
A-----------------------------------------------------------------------|
F-----------------------------------------------------------------------|
C-4~~~~~~~~~~~~~~~~~~~~~~~~~~~~~~~~~~~~~~~~~~~~~~~~~~~~~~~~~~~~~~~~~~~~~
G-4~~~~~~~~~~~~~~~~~~~~~~~~~~~~~~~~~~~~~~~~~~~~~~~~~~~~~~~~~~~~~~~~~~~~~
C-4~~~~~~~~~~~~~~~~~~~~~~~~~~~~~~~~~~~~~~~~~~~~~~~~~~~~~~~~~~~~~~~~~~~~~

Guitar 2
D------------------------------------------------------------------------|
A------------------------------------------------------------------------|
F------------------------------------------------------------------------|
C----4-----6-----7-----------------------4-----6-----7-------------------|
G------------------------------------------------------------------------|
C-4-----4-----4-----4--4--4--4--4--4--4-----4-----4-----4--4--4--4--4--4-|
pm.     .     .     .  .  .  .  .  .  .     .     .     .  .  .  .  .  .

Guitar 1
D-----------------------------------------------------------------------|
A-----------------------------------------------------------------------|
F-----------------------------------------------------------------------|
C-0~~~~~~~~~~~~~~~~~~~~~~~~~~~~~~~~~~~~~~~~~~~~~~~~~~~~~~~~~~~~~~~~~~~~~
G-0~~~~~~~~~~~~~~~~~~~~~~~~~~~~~~~~~~~~~~~~~~~~~~~~~~~~~~~~~~~~~~~~~~~~~
C-0~~~~~~~~~~~~~~~~~~~~~~~~~~~~~~~~~~~~~~~~~~~~~~~~~~~~~~~~~~~~~~~~~~~~~

Guitar 2
D------------------------------------------------------------------------|
A------------------------------------------------------------------------|
F------------------------------------------------------------------------|
C----4-----6-----2-----------------------4-----6-----2-------------------|
G------------------------------------------------------------------------|
C-0-----0-----0-----0--0--0--0--0--0--0-----0-----0-----0--0--0--0--0--0-|
pm.     .     .     .  .  .  .  .  .  .     .     .     .  .  .  .  .  .

Guitar 1
D-----------------------------------------------------------------------|
A-----------------------------------------------------------------------|
F-----------------------------------------------------------------------|
C-4~~~~~~~~~~~~~~~~~~~~~~~~~~~~~~~~~~~~~~~~~~~~~~~~~~~~~~~~~~~~~~~~~~~~~
G-4~~~~~~~~~~~~~~~~~~~~~~~~~~~~~~~~~~~~~~~~~~~~~~~~~~~~~~~~~~~~~~~~~~~~~
C-4~~~~~~~~~~~~~~~~~~~~~~~~~~~~~~~~~~~~~~~~~~~~~~~~~~~~~~~~~~~~~~~~~~~~~

Guitar 2
D------------------------------------------------------------------------|
A------------------------------------------------------------------------|
F------------------------------------------------------------------------|
C----4-----6-----7-----------------------4-----6-----7-------------------|
G------------------------------------------------------------------------|
C-4-----4-----4-----4--4--4--4--4--4--4-----4-----4-----4--4--4--4--4--4-|
pm.     .     .     .  .  .  .  .  .  .     .     .     .  .  .  .  .  .

Guitar 1
D-------------------------------------------------------------------------|
A-------------------------------------------------------------------------|
F-------------------------------------------------------------------------|
C-0~~~~~~~~~~~~~~~~~~~~~~~~~~~~~~~~~~~~~~~~~~~~~~~~~~~~~-0--0--0--0--0--0-|
G-0~~~~~~~~~~~~~~~~~~~~~~~~~~~~~~~~~~~~~~~~~~~~~~~~~~~~~-0--0--0--0--0--0-|
C-0~~~~~~~~~~~~~~~~~~~~~~~~~~~~~~~~~~~~~~~~~~~~~~~~~~~~~-0--0--0--0--0--0-|
pm                                                       .  .  .  .  .  .

Guitar 2
D------------------------------------------------------------------------|
A------------------------------------------------------------------------|
F------------------------------------------------------------------------|
C----4-----6-----2-----------------------4-----6-----2--0--0--0--0--0--0-|
G-------------------------------------------------------0--0--0--0--0--0-|
C-0-----0-----0-----0--0--0--0--0--0--0-----0-----0-----0--0--0--0--0--0-|
pm.     .     .     .  .  .  .  .  .  .     .     .     .  .  .  .  .  .


Guitar 1
D------------------------------------------------------------------------|
A------------------------------------------------------------------------|
F----------4-----6-----------------------------4-----6-------------------|
C----4-----------------------------------4-------------------------------|
G------------------------------------------------------------------------|
C-4-----4-----4-----4--4--4--4--4--4--4-----4-----4-----4--4--4--4--4--4-|
pm.     .     .     .  .  .  .  .  .  .     .     .     .  .  .  .  .  .

Guitar 2
D------------------------------------------------------------------------|
A------------------------------------------------------------------------|
F------------------------------------------------------------------------|
C----4-----6-----7-----------------------4-----6-----7-------------------|
G------------------------------------------------------------------------|
C-4-----4-----4-----4--4--4--4--4--4--4-----4-----4-----4--4--4--4--4--4-|
pm.     .     .     .  .  .  .  .  .  .     .     .     .  .  .  .  .  .

Guitar 1
D------------------------------------------------------------------------|
A------------------------------------------------------------------------|
F----2-----4-----------------------------2-----4-------------------------|
C----------------6-----------------------------------6-------------------|
G------------------------------------------------------------------------|
C-0-----0-----0-----0--0--0--0--0--0--0-----0-----0-----0--0--0--0--0--0-|
pm.     .     .     .  .  .  .  .  .  .     .     .     .  .  .  .  .  .

Guitar 2
D------------------------------------------------------------------------|
A------------------------------------------------------------------------|
F------------------------------------------------------------------------|
C----4-----6-----2-----------------------4-----6-----2-------------------|
G------------------------------------------------------------------------|
C-0-----0-----0-----0--0--0--0--0--0--0-----0-----0-----0--0--0--0--0--0-|
pm.     .     .     .  .  .  .  .  .  .     .     .     .  .  .  .  .  .

Guitar 1
D------------------------------------------------------------------------|
A------------------------------------------------------------------------|
F----------4-----6-----------------------------4-----6-------------------|
C----4-----------------------------------4-------------------------------|
G------------------------------------------------------------------------|
C-4-----4-----4-----4--4--4--4--4--4--4-----4-----4-----4--4--4--4--4--4-|
pm.     .     .     .  .  .  .  .  .  .     .     .     .  .  .  .  .  .

Guitar 2
D------------------------------------------------------------------------|
A------------------------------------------------------------------------|
F------------------------------------------------------------------------|
C----4-----6-----7-----------------------4-----6-----7-------------------|
G------------------------------------------------------------------------|
C-4-----4-----4-----4--4--4--4--4--4--4-----4-----4-----4--4--4--4--4--4-|
pm.     .     .     .  .  .  .  .  .  .     .     .     .  .  .  .  .  .

Guitar 1
D-----------------------------------------------------------------------|
A-----------------------------------------------------------------------|
F----2-----4-----------------------------2-----4------------------------|
C----------------6-----------------------------------6------------------|
G-----------------------------------------------------------------------|
C-0-----0-----0-----0--0--0--0--0--0--0-----0-----0---------------------|
pm.     .     .     .  .  .  .  .  .  .     .     .

Guitar 2
D-----------------------------------------------------------------------|
A-----------------------------------------------------------------------|
F-----------------------------------------------------------------------|
C----4-----6-----2-----------------------4-----6-----2------------------|
G-----------------------------------------------------------------------|
C-0-----0-----0-----0--0--0--0--0--0--0-----0-----0---------------------|
pm.     .     .     .  .  .  .  .  .  .     .     .

Tab Legend
h  -  hammer-on
p  -  pull-off
/  -  slide up
\  -  slide down
ps/-  pickslide up
ps\-  pickslide down
~  -  let ring
pm.-  palm mute
b  -  bend
r  -  return from bend
*  -  harmonic
x  -  dead note

Thanks for viewing my tab. I hope if was good, and, if you want, tell me how it was. If
good, or bad, I want to know. Also if you want me to make a tab that hasn’t already been
just email me, and I will try my best. Oh and one last thing... ROCK OUT!!!!

            
            
Suggest correction
Creating personal tab
Creating personal tab
You can edit any tab online and save it as your Personal.

You can edit, replace or remove any tab part or add personal notes – all changes will be seen only by you.

Personal tabs can be accessed anytime from any device, even offline.
Learn more »
comments
print report bad tab
14 comments total. Showing first comments.
+2 reply
xXshadowswordXx 40 May 01, 2010 03:03 PM

Dude this tab about 100% correct well done and thank you for posting this up 5 stars :D

0 reply
knights70 190 May 01, 2010 07:03 PM

Love the tab dude, great job!

-1 reply
iamghost 807 May 03, 2010 10:37 AM

this tab is not 100% correct, the verse is wrong.

guest
You may want to rate the tab now too:
select rating
Wanna post a correction for this tab? Suggest correction