Oops, an error
Loading. Please wait.
We have an official Road To Nowhere tab made by UG professional guitarists. Check out the tab »
×
131,296 views 18 this week
5 commentsread comments
1 2 3 4 5
x 8
add to favorites
×
Save as Personal and add changes to this tab that will be seen only by you. Learn more ›
×
You can save this tab as Personal to edit and correct it or add notes. All changes will be seen only by you. Learn more »
launch autoscroll
font size
0
reset
how to read this tab
guitar tuner
edit
Autoscroll
slow
fast
+/-
esc
set tempo
stop
Artist: Bullet For My Valentine
Song: Road To Nowhere
Album: Scream Aim Fire (Deluxe Edition)


Tabbed by:marco66666
Email: marco66666@gmail.com

Tuning:DGCFAD(Guitar Tune down 1 Step)
Enjoy!!!

Intro (guitar 1 acoustic):

D|----------------------------------------------------|
A|----------------------------------------------------|
F|-6--6-6-6-6--6--6-6-6-6-s-9--9-9-9-9--9--9-9-9-9----|
C|-6--6-6-6-6--6--6-6-6-6-s-9--9-9-9-9—-9--9-9-9-9----|
G|-4--4-4-4-4--4--4-4-4-4-s-7--7-7-7-7--7--7-7-7-7----|
D|----------------------------------------------------|

D|-7--7-7-7-7—-7--7-7-7-7--7--7-7-7--9-9-9-9--9h9---|
A|-7--7-7-7-7—-7--7-7-7-7--9--9-9-9--9-9-9-9--9h9---|
F|-8--8-8-8-8—-8--8-8-8-8--9--9-9-9—-11-11-11-11h9--|
C|-9--9-9-9-9--9--9-9-9-9--7--7-7-7--9-9-9-9--9h9---|
G|-9--9-9-9-9—-9--9-9-9-9--7--7-7-7--9-9-9-9--9h9---|
D|-7--7-7-7-7—-7--7-7-7-7------------7-7-7-7--7h9---|

D|----------------------------------------------------|
A|----------------------------------------------------|
F|-6--6-6-6-6--6--6-6-6-6-s-9--9-9-9-9--9--9-9-9-9----|
C|-6--6-6-6-6--6--6-6-6-6-s-9--9-9-9-9—-9--9-9-9-9----|
G|-4--4-4-4-4--4--4-4-4-4-s-7--7-7-7-7--7--7-7-7-7----|
D|----------------------------------------------------|

D|-7--7-7-7-7—-7--7-7-7-7--7---|
A|-7--7-7-7-7—-7--7-7-7-7--7---|
F|-8--8-8-8-8—-8--8-8-8-8--9---|
C|-9--9-9-9-9--9--9-9-9-9--9---|
G|-9--9-9-9-9—-9--9-9-9-9--7---|
D|-7--7-7-7-7—-7--7-7-7-7--7---|

Verse 1 (guitar 1 acoustic):

D|---------------------------------------------------|
A|---------------------------------------------------|
F|-6--6-6-6-6--6--6-6-6-6-s-9--9-9-9-9--9--9-9-9-9---|
C|-6--6-6-6-6--6--6-6-6-6-s-9--9-9-9-9—-9--9-9-9-9---|
G|-4--4-4-4-4--4--4-4-4-4-s-7--7-7-7-7--7--7-7-7-7---|
D|---------------------------------------------------|

D|-7--7-7-7-7—-7--7-7-7-7--7--7-7-7--9-9-9-9--9h9---|
A|-7--7-7-7-7—-7--7-7-7-7--9--9-9-9--9-9-9-9--9h9---|
F|-8--8-8-8-8—-8--8-8-8-8--9--9-9-9—-11-11-11-11h9--|   X4
C|-9--9-9-9-9--9--9-9-9-9--7--7-7-7--9-9-9-9--9h9---|
G|-9--9-9-9-9—-9--9-9-9-9--7--7-7-7--9-9-9-9--9h9---|
D|-7--7-7-7-7—-7--7-7-7-7------------7-7-7-7--7h9---|

Chorus (guitar 1 acoustic) (1mn08s):

D|-5--5-5-5-5--5-5-5-5-5--7--7-7-7-7-7-7-7--7--7-7-7-7-7-7-7----7-7---|
A|-5--5-5-5-5--5-5-5-5-5--7--7-7-7-7-7-7-7--7--7-7-7-7-7-7-7----9-7---|
F|-6--6-6-6-6--6-6-6-6-6--8--8-8-8-8-8-8-8--9--9-9-9-9-9-9-9--6-9-9---|
C|-7--7-7-7-7--7-7-7-7-7--9--9-9-9-9-9-9-9--9--9-9-9-9-9-9-9--6-7-9---|
G|-7--7-7-7-7--7-7-7-7-7--9--9-9-9-9-9-9-9--7--7-7-7-7-7-7-7--4-7-7---|
D|-5--5-5-5-5--5-5-5-5-5--7--7-7-7-7-7-7-7--7--7-7-7-7-7-7-7----7-7---|


D|-5--5-5-5-5-5-5--7-7-7-7-7-7-7-----------------5-5-5-5-5-5-5---|
A|-5--5-5-5-5-5-5--7-7-7-7-7-7-7-----------------5-5-5-5-5-5-5---|
F|-6--6-6-6-6-6-6--7-7-7-7-7-7-7--6-6-6-6-6-6-6--6-6-6-6-6-6-6---|
C|-7--7-7-7-7-7-7--9-9-9-9-9-9-9--6-4-4-4-4-4-4--7-7-7-7-7-7-7---|
G|-7--7-7-7-7-7-7--9-9-9-9-9-9-9--4-4-4-4-4-4-4--7-7-7-7-7-7-7---|
D|-5--5-5-5-5-5-5--7-7-7-7-7-7-7-----------------5-5-5-5-5-5-5---|


D|-7-7-7-7-7-7-7--7---------------------|
A|-7-7-7-7-7-7-7--7---------------------|
F|-7-7-7-7-7-7-7--9---------------------|
C|-9-9-9-9-9-9-9--9---------------------|
G|-9-9-9-9-9-9-9--7---xh7-6-4-6-7-9-7---|
D|-7-7-7-7-7-7-7--7---x-----------------|

Solo (guitar 2 acoustic):


D|-----------------------------------------------------------------------|
A|-----------------2—-xh5-4-2-4-5-7-5-xh9-7-5-7-5-4-5-xh9-7-5-7-9-10-9---|
F|---------------4----x---------------x---------------x------------------|
C|---------2h4h6------x---------------x---------------x------------------|
G|-----2h4---------------------------------------------------------------|
D|-2h4-------------------------------------------------------------------|


Verse 2(guitar 1 acoustic):

D|---------------------------------------------------|
A|---------------------------------------------------|
F|-6--6-6-6-6--6--6-6-6-6-s-9--9-9-9-9--9--9-9-9-9---|
C|-6--6-6-6-6--6--6-6-6-6-s-9--9-9-9-9—-9--9-9-9-9---|
G|-4--4-4-4-4--4--4-4-4-4-s-7--7-7-7-7--7--7-7-7-7---|
D|---------------------------------------------------|

D|-7--7-7-7-7—-7--7-7-7-7--7--7-7-7--9-9-9-9--9h9---|
A|-7--7-7-7-7—-7--7-7-7-7--9--9-9-9--9-9-9-9--9h9---|
F|-8--8-8-8-8—-8--8-8-8-8--9--9-9-9—-11-11-11-11h9--|   X2
C|-9--9-9-9-9--9--9-9-9-9--7--7-7-7--9-9-9-9--9h9---|
G|-9--9-9-9-9—-9--9-9-9-9--7--7-7-7--9-9-9-9--9h9---|
D|-7--7-7-7-7—-7--7-7-7-7------------7-7-7-7--7h9---|

Verse 2(guitar 2 acoustic):

D|-----------------------------------------------|
A|-----------------------------------------------|
F|-----------------------------------------------|
C|---2---2----2---2----2---2—-s6-4-2-4-2-2-1-4---| X2
G|-4---4----0---0----2---2-----------------------|
D|-----------------------------------------------|

D|--------7--------4---|
A|---------------------|
F|-----9---------6-----|
C|---9---------6-------| x3
G|-7---------4---------|
D|---------------------|

Verse 3(guitar 1 dist.):

D|----------------------7--5----5--7------|
A|----------------------7--5----5--7------|
F|-6-6-----6-6-6-----6--8--6----6--8--6---|
C|-6-6-----6-6-6-----6--9--7----7--9--6---|
G|-4-4-----4-4-4-----4--9--7----7--9--4---|
D|----------------------7—-5----5--7------|

D|--------------7--5----5--7------|
A|--------------7--5----5--7------|
F|-6-6-6-----6--8--6----6--8--6---|
C|-6-6-6-----6--9--7----7--9--6---|
G|-4-4-4-----4--9--7----7--9--4---|
D|--------------7—-5----5--7------|

D|--------------7--5----7---------------|
A|--------------7--5----7---------------|
F|-6-6-6-----6--8--6----8---------------|
C|-6-6-6-----6--9--7----9—-6///—-4///---|
G|-4-4-4-----4--9--7----9---------------|
D|--------------7—-5----7---------------|

Verse 3(guitar 2 dist.)


D|---------------------------------------------------------------|
A|---------------------------------------------------------------|
F|-6--6----------------------------------------------------------|
C|-6—-6--6-6-6-6-6-6-6-6-6-6-6-6-6-6-6-6-6-6-6-6-6-6-6-6-6-6-6---|
G|-4—-4--4-4-4-4-4-4-4-4-4-4-4-4-4-4-4-4-4-4-4-4-4-4-4-4-4-4-4---|
D|---------------------------------------------------------------|


D|----------------------------------------------------------------7--5---|
A|----------------------------------------------------------------7--5---|
F|-6--6--6-----------------------------------------------------6--8--6---|
C|-6--6--6--6-6-6-6-6-6-6-6-6-6-6-6-6-6-6-6-6-6-6-6-6-6-6-6-6--6--9--7---|
G|-4--4--4--4-4-4-4-4-4-4-4-4-4-4-4-4-4-4-4-4-4-4-4-4-4-4-4-4--4--9--7---|
D|----------------------------------------------------------------7—-5---|

D|-----------------------5--7------|
A|-----------------------5--7------|
F|-9------9----9------9--6--8--6---|
C|---11-9---11---11-9----7--9--6---|
G|-----------------------7--9--4---|
D|-----------------------5--7------|

D|---------------------------------------------------------|
A|---------------------------------------------------------|
F|---------------------------------------------------------|
C|-6-6-6-6-6-6-6-6-6-6-6-6-6-6-6-6-6-6-6-6-6-6-6-6-6-6-6---|
G|-4-4-4-4-4-4-4-4-4-4-4-4-4-4-4-4-4-4-4-4-4-4-4-4-4-4-4---|
D|---------------------------------------------------------|


D|----------------------------------------------------------------7--5---|
A|----------------------------------------------------------------7--5---|
F|-6--6--6-----------------------------------------------------6--8--6---|
C|-6--6--6--6-6-6-6-6-6-6-6-6-6-6-6-6-6-6-6-6-6-6-6-6-6-6-6-6--6--9--7---|
G|-4--4--4--4-4-4-4-4-4-4-4-4-4-4-4-4-4-4-4-4-4-4-4-4-4-4-4-4--4--9--7---|
D|----------------------------------------------------------------7—-5---|

D|-----------------------5--7------|
A|-----------------------5--7------|
F|-9------9----9------9--6--8--6---|
C|---11-9---11---11-9----7--9--6---|
G|-----------------------7--9--4---|
D|-----------------------5--7------|

D|---------------------------------------------------------|
A|---------------------------------------------------------|
F|---------------------------------------------------------|
C|-6-6-6-6-6-6-6-6-6-6-6-6-6-6-6-6-6-6-6-6-6-6-6-6-6-6-6---|
G|-4-4-4-4-4-4-4-4-4-4-4-4-4-4-4-4-4-4-4-4-4-4-4-4-4-4-4---|
D|---------------------------------------------------------|


D|----------------------------------------------------------------7--5---|
A|----------------------------------------------------------------7--5---|
F|-6--6--6-----------------------------------------------------6--8--6---|
C|-6--6--6--6-6-6-6-6-6-6-6-6-6-6-6-6-6-6-6-6-6-6-6-6-6-6-6-6--6--9--7---|
G|-4--4--4--4-4-4-4-4-4-4-4-4-4-4-4-4-4-4-4-4-4-4-4-4-4-4-4-4--4--9--7---|
D|----------------------------------------------------------------7—-5---|

D|------------------------------------------------------|
A|------------------------------------------------------|
F|-9------9----9------9--11------11----9----------------|
C|---11-9---11---11-9-------11-9----11-----6///—-4///---|
G|------------------------------------------------------|
D|------------------------------------------------------|

Verse 4 (guitar 1 dist.)


D|--------------------------------------------------------------------------|
A|--------------------------------------------------------------------------|
F|-6--6-6-6-6-6-6-6-6-6-6-6-6-----------6--6-6-6-6-6-6-6-6-6-6-6-6----------|
C|-6--6-6-6-6-6-6-6-6-6-6-6-6--7-6-4-6--6--6-6-6-6-6-6-6-6-6-6-6-6--7-6-4-6-|
G|-4--4-4-4-4-4-4-4-4-4-4-4-4-----------4--4-4-4-4-4-4-4-4-4-4-4-4----------|
D|--------------------------------------------------------------------------|

D|-5-5-5-5-5-5-5-5-5-5-5-5-5------------7-7-7-7-7-7----------------|
A|-5--5-5-5-5-5-5-5-5-5-5-5-5-----------7-7-7-7-7-7----------------|
F|-6--6-6-6-6-6-6-6-6-6-6-6-6------1----8-8-8-8-8-8----------------|
C|-7--7-7-7-7-7-7-7-7-7-7-7-7--2-4---4--9-9-9-9-9-9—--6///--4///---|
G|-7--7-7-7-7-7-7-7-7-7-7-7-7-----------9-9-9-9-9-9----------------|
D|-5--5-5-5-5-5-5-5-5-5-5-5-5-----------7-7-7-7-7-7----------------|

D|--------------------------------------------------------------------------|
A|--------------------------------------------------------------------------|
F|-6--6-6-6-6-6-6-6-6-6-6-6-6-----------6--6-6-6-6-6-6-6-6-6-6-6-6----------|
C|-6--6-6-6-6-6-6-6-6-6-6-6-6--7-6-4-6--6--6-6-6-6-6-6-6-6-6-6-6-6--7-6-4-6-|
G|-4--4-4-4-4-4-4-4-4-4-4-4-4-----------4--4-4-4-4-4-4-4-4-4-4-4-4----------|
D|--------------------------------------------------------------------------|

D|-5-5-5-5-5-5-5-5-5-5-5-5-5------------7-7-7-7-7-7----------------|
A|-5--5-5-5-5-5-5-5-5-5-5-5-5-----------7-7-7-7-7-7----------------|
F|-6--6-6-6-6-6-6-6-6-6-6-6-6------1----8-8-8-8-8-8----------------|
C|-7--7-7-7-7-7-7-7-7-7-7-7-7--2-4---4--9-9-9-9-9-9—---------------|
G|-7--7-7-7-7-7-7-7-7-7-7-7-7-----------9-9-9-9-9-9---9///--8///---|
D|-5--5-5-5-5-5-5-5-5-5-5-5-5-----------7-7-7-7-7-7----------------|

Verse 4(guitar 2 dist.):

D|--------------------------------------------------------------------------|
A|--------------------------------------------------------------------------|
F|-6--6-6-6-6-6-6-6-6-6-6-6-6-----------6--6-6-6-6-6-6-6-6-6-6-6-6----------|
C|-6--6-6-6-6-6-6-6-6-6-6-6-6-----------6--6-6-6-6-6-6-6-6-6-6-6-6----------|
G|-4--4-4-4-4-4-4-4-4-4-4-4-4--9-7-6-7--4--4-4-4-4-4-4-4-4-4-4-4-4--9-7-6-7-|
D|--------------------------------------------------------------------------|

D|-5-5-5-5-5-5-5-5-5-5-5-5-5---------------7-7-7-7-7-7----------------|
A|-5--5-5-5-5-5-5-5-5-5-5-5-5--------------7-7-7-7-7-7----------------|
F|-6--6-6-6-6-6-6-6-6-6-6-6-6--------------8-8-8-8-8-8----------------|
C|-7--7-7-7-7-7-7-7-7-7-7-7-7------2-------9-9-9-9-9-9—--6///--4///---|
G|-7--7-7-7-7-7-7-7-7-7-7-7-7—-4-6---6-----9-9-9-9-9-9----------------|
D|-5--5-5-5-5-5-5-5-5-5-5-5-5--------------7-7-7-7-7-7----------------|

D|--------------------------------------------------------------------------|
A|--------------------------------------------------------------------------|
F|-6--6-6-6-6-6-6-6-6-6-6-6-6-----------6--6-6-6-6-6-6-6-6-6-6-6-6----------|
C|-6--6-6-6-6-6-6-6-6-6-6-6-6-----------6--6-6-6-6-6-6-6-6-6-6-6-6----------|
G|-4--4-4-4-4-4-4-4-4-4-4-4-4--9-7-6-7--4--4-4-4-4-4-4-4-4-4-4-4-4--9-7-6-7-|
D|--------------------------------------------------------------------------|

D|-5--5-5-5-5-5-5-5-5-5-5-5-5---------------7-7-7-7-7-7----------------|
A|-5--5-5-5-5-5-5-5-5-5-5-5-5---------------7-7-7-7-7-7----------------|
F|-6--6-6-6-6-6-6-6-6-6-6-6-6---------------8-8-8-8-8-8----------------|
C|-7--7-7-7-7-7-7-7-7-7-7-7-7------2--------9-9-9-9-9-9—---------------|
G|-7--7-7-7-7-7-7-7-7-7-7-7-7—-4-6---6------9-9-9-9-9-9---9///--8///---|
D|-5--5-5-5-5-5-5-5-5-5-5-5-5---------------7-7-7-7-7-7----------------|


Chorus end (guitar 1 dist.) (3mn20s):

D|-5-5-5-5-5-5-5-5-5-5-5-5--7-7-7-7-7-7-7-7-7-7-7-7--7-7-7-7-7-7-7-7-7-7-7-|
A|-5-5-5-5-5-5-5-5-5-5-5-5--7-7-7-7-7-7-7-7-7-7-7-7--7-7-7-7-7-7-7-7-7-7-7-|
F|-6-6-6-6-6-6-6-6-6-6-6-6--8-8-8-8-8-8-8-8-8-8-8-8--9-9-9-9-9-9-9-9-9-9-9-|
C|-7-7-7-7-7-7-7-7-7-7-7-7--9-9-9-9-9-9-9-9-9-9-9-9--9-9-9-9-9-9-9-9-9-9-9-|
G|-7-7-7-7-7-7-7-7-7-7-7-7--9-9-9-9-9-9-9-9-9-9-9-9--7-7-7-7-7-7-7-7-7-7-7-|
D|-5-5-5-5-5-5-5-5-5-5-5-5--7-7-7-7-7-7-7-7-7-7-7-7--7-7-7-7-7-7-7-7-7-7-7-|


D|----------------------5-5-5-5-5-5-5-5-5-5-5-5-5-5--7-7-7-7-7-7-7-7-7-7-7-|
A|----------------------5-5-5-5-5-5-5-5-5-5-5-5-5-5--7-7-7-7-7-7-7-7-7-7-7-|
F|-6-6-6-6-6-6-6-6-6-6--6-6-6-6-6-6-6-6-6-6-6-6-6-6--8-8-8-8-8-8-8-8-8-8-8-|
C|-6-6-6-6-6-6-6-6-6-6--7-7-7-7-7-7-7-7-7-7-7-7-7-7--9-9-9-9-9-9-9-9-9-9-9-|
G|-4-4-4-4-4-4-4-4-4-4--7-7-7-7-7-7-7-7-7-7-7-7-7-7--9-9-9-9-9-9-9-9-9-9-9-|
D|----------------------5-5-5-5-5-5-5-5-5-5-5-5-5-5--7-7-7-7-7-7-7-7-7-7-7-|

D|-5-5-5-5-5-5-5-5-5-5-5-5--7-7-7-7-7-7-7-7-7-7-7-7--7-7-7-7-7-7-7-7-7-7-7-|
A|-5-5-5-5-5-5-5-5-5-5-5-5--7-7-7-7-7-7-7-7-7-7-7-7--7-7-7-7-7-7-7-7-7-7-7-|
F|-6-6-6-6-6-6-6-6-6-6-6-6--8-8-8-8-8-8-8-8-8-8-8-8--9-9-9-9-9-9-9-9-9-9-9-|
C|-7-7-7-7-7-7-7-7-7-7-7-7--9-9-9-9-9-9-9-9-9-9-9-9--9-9-9-9-9-9-9-9-9-9-9-|
G|-7-7-7-7-7-7-7-7-7-7-7-7--9-9-9-9-9-9-9-9-9-9-9-9--7-7-7-7-7-7-7-7-7-7-7-|
D|-5-5-5-5-5-5-5-5-5-5-5-5--7-7-7-7-7-7-7-7-7-7-7-7--7-7-7-7-7-7-7-7-7-7-7-|


D|----------------------5-5-5-5-5-5-5-5-5-5-5-5-5-5--7-7-7-7-7-7-7-7-7-7-7-|
A|----------------------5-5-5-5-5-5-5-5-5-5-5-5-5-5--7-7-7-7-7-7-7-7-7-7-7-|
F|-6-6-6-6-6-6-6-6-6-6--6-6-6-6-6-6-6-6-6-6-6-6-6-6--8-8-8-8-8-8-8-8-8-8-8-|
C|-6-6-6-6-6-6-6-6-6-6--7-7-7-7-7-7-7-7-7-7-7-7-7-7--9-9-9-9-9-9-9-9-9-9-9-|
G|-4-4-4-4-4-4-4-4-4-4--7-7-7-7-7-7-7-7-7-7-7-7-7-7--9-9-9-9-9-9-9-9-9-9-9-|
D|----------------------5-5-5-5-5-5-5-5-5-5-5-5-5-5--7-7-7-7-7-7-7-7-7-7-7-|

D|-7/////////////---
A|-7/////////////---
F|-8/////////////---
C|-9/////////////---
G|-9////////////----|
D|-7///////////-----|

Outro (guitar 2 acoustic):


D|--------7---------------|
A|--------------------7---|
F|-----9------------------|
C|---9----------9--7------|
G|-7----------7-----------|
D|------------------------|


Thanks for your comments or just send me little thanks at marco66666@gmail.com!!

            
            
Suggest correction
Creating personal tab
Creating personal tab
You can edit any tab online and save it as your Personal.

You can edit, replace or remove any tab part or add personal notes – all changes will be seen only by you.

Personal tabs can be accessed anytime from any device, even offline.
Learn more »
comments
print report bad tab
5 comments total. Showing first comments.
+1 reply
riggdaddy2k5 736 Dec 16, 2008 07:55 PM

it sounds good until the distorted part. it just doesn't sound right.

+1 reply
Ghost Stalker 12 Dec 28, 2008 11:30 AM

Agreed, ive only tried to play the distorted part...and it just sounds awful. And when ya listen to the song there is no way that there are 6 string chords...

+1 reply
royturner23 1,507 Jan 04, 2009 02:13 AM

take out the F, A & D strings on the Distortion part
and you're good.............

guest
Wanna post a correction for this tab? Suggest correction