Oops, an error
Loading. Please wait.
We have an official Road To Nowhere tab made by UG professional guitarists. Check out the tab »
×
169,161 views 141 this week
23 commentsread comments
1 2 3 4 5
x 62
add to favorites
×
Save as Personal and add changes to this tab that will be seen only by you. Learn more ›
×
You can save this tab as Personal to edit and correct it or add notes. All changes will be seen only by you. Learn more »
launch autoscroll
font size
0
reset
how to read this tab
guitar tuner
edit
Autoscroll
slow
fast
+/-
esc
set tempo
stop
Author
Tabbed by: BurnSami

Arist:Bullet For My Valentine
Song: Road To Nowhere
Tuning: DGCFAD


[Intro/verse]

D||--4-------4------4---4-------4------4---4--4--4--4----||
A||--5-------5------5---5-------5------5---5--5--5--5----||
F||--6------(6)----(6)--6------(6)----(6)--6--6--6--6\---|| use ring and 
C||--6------(6)----(6)--6------(6)----(6)--6--6--6--6\---|| little finger 
G||--4------(4)----(4)--4------(4)----(4)--4--4--4--4----|| on this slide
D||------------------------------------------------------||

D||--0-------0------0---0-------0------0---0--0--0--0----||
A||--0-------0------0---0-------0------0---0--0--0--0----||
F||--2------(2)----(2)--2------(2)----(2)--2--2--2--2/---||
C||--2------(2)----(2)--2------(2)----(2)--2--2--2--2/---|| same here
G||--0------(0)----(0)--0------(0)----(0)--0--0--0--0----||
D||------------------------------------------------------||

D||--0-------0------0---0-------0------0---0--0--0--0----||
A||--0-------0------0---0-------0------0---0--0--0--0----||
F||--4------(4)----(4)--4------(4)----(4)--4--4--4--4----||
C||--4------(4)----(4)--4------(4)----(4)--4--4--4--4----||
G||--2------(2)----(2)--2------(2)----(2)--2--2--2--2----||
D||------------------------------------------------------||

D||--------------------------------------------||
A||--------------------------------------------||
F||--4------4----4--4------4----4--4--4--4--4--|| 
C||--6------6----6--4------4----4--4--4--6--6--|| x2
G||--7------7----7--6------6----6--6--6--7--7--|| 
D||--------------------------------------------|| 
                                
D||-----||
A||--4--||
F||--4--||
C||--4--||
G||--2--||
D||-----||

[Intro/verse] x4

[Chorus]

D||--0-------0------0---0-------0------0---0--0--0--0---||
A||--0-------0------0---0-------0------0---0--0--0--0---||
F||--2------(2)----(2)--2------(2)----(2)--2--2--2--2---||
C||--2------(2)----(2)--2------(2)----(2)--2--2--2--2---||
G||--0------(0)----(0)--0------(0)----(0)--0--0--0--0---||
D||-----------------------------------------------------||

D||--0-------0------0---0-------0------0---0--0--0--0---||
A||--0-------0------0---0-------0------0---0--0--0--0---||
F||--2------(2)----(2)--2------(2)----(2)--2--2--2--2---||
C||--1------(1)----(1)--1------(1)----(1)--1--1--1--1---||
G||--2------(2)----(2)--2------(2)----(2)--2--2--2--2---||
D||-----------------------------------------------------||

D||--0-------0------0---0-------0------0---0--0--0--0---||
A||--0-------0------0---0-------0------0---0--0--0--0---||
F||--1------(1)----(1)--1------(1)----(1)--1--1--1--1---||
C||--2------(2)----(2)--2------(2)----(2)--2--2--2--2---||
G||--2------(2)----(2)--2------(2)----(2)--2--2--2--2---||
D||-----------------------------------------------------||

D||--4------4------0--||
A||--4------5------0--||
F||--6------6------6--||
C||--6------6------6--||
G||--4------4------4--||
D||-------------------||

D||------0---0------0---0-------0------0---0--0--0--0---||
A||-----0----0------0---0-------0------0---0--0--0--0---||
F||----2----(2)----(2)--2------(2)----(2)--2--2--2--2---||
C||---2-----(2)----(2)--2------(2)----(2)--2--2--2--2---||
G||--0------(0)----(0)--0------(0)----(0)--0--0--0--0---||
D||-----------------------------------------------------||

D||--0-------0------0---0-------0------0---0--0--0--0---||
A||--0-------0------0---0-------0------0---0--0--0--0---||
F||--2------(2)----(2)--2------(2)----(2)--2--2--2--2---||
C||--1------(1)----(1)--1------(1)----(1)--1--1--1--1---||
G||--2------(2)----(2)--2------(2)----(2)--2--2--2--2---||
D||-----------------------------------------------------||


[Solo]

D||----------------------------||
A|-----------------------------||
F||---------------------4h6----||
C||-------------2h4/6----------||
G||-------2h4------------------||
D||--2h4-----------------------||

D||-----------------------------------------||
A||---------------------------------7-------||
F||------x--9----8----6----8----9-------9---||
C||----x------------------------------------||
G||--x--------------------------------------||
D||-----------------------------------------||

D||-----------------------------------------||
A||---------9----7---------7----------------||
F||------x------------9---------9---8---9---||
C||----x------------------------------------||
G||--x--------------------------------------||
D||-----------------------------------------||

D||----------------------------------------||------||
A||---------9----7---------7----9--10---9--||--5~~-||
F||------x------------9--------------------||------||
C||----x-----------------------------------||------||
G||--x-------------------------------------||------||
D||----------------------------------------||------||

[Intro/verse]

2nd guitar
D||--------------------------------------------||
A||--------------------------------------------||
F||--------------------------------------------||
C||-----2-----2-------2-----2-------2-----2----||
G||--4-----4-------0-----0-------2-----2-------||
D||--------------------------------------------|| \
                                                   2x
D||--------------------------------------------|| /
A||--------------------------------------------||
F||--------------------------------------------||
C||--/6----2--------4----1--------2p1----------|| (not sure about this)
G||------------------------------------4-------||
D||--------------------------------------------||

D||---------------7-----------------------2----||
A||--------------------------------------------||
F||----------9----------------------4----------||
C||------9----------------------4--------------|| 3x
G||--7----------------------2------------------||
D||--------------------------------------------||


[Verse] (distortion)

           PM PM PM PM PM PM PM PM PM    PM    PM     
D||--------------------------------------------------||
A||--------------------------------------------------||
F||--6--6-----------------------------6-----6-----6--||
C||--6--6--6--6--6--6--6--6--6--6--6--6--6--6--6--6--||
G||--4--4--4--4--4--4--4--4--4--4--4--4--4--4--4--4--||
D||--------------------------------------------------||
                                                        3x
     PM PM PM PM PM PM PM                                       
D||----------------------------------------------------||
A||----------------------------------------------------||
F||--------------------------------6--6--6--6--4--2~~--||
C||--6--6--6--6--6--6--6--6--6--6--6--6--6--6--4--2~~--||
G||--4--4--4--4--4--4--4--4--4--4--4--4--4--4--2--0~~--||
D||----------------------------------------------------||
         
D||---------------||
A||---------------||
F||--2----4----6--||first &
C||--2----4----6--||2nd end
G||--0----2----4--||
D||---------------||
                                                
D||-------------------------||
A||-------------------------||
F||--2----4-----------------|| 3rd end
C||--2----4---/6--6----/4--4||
G||--0----2---/7--7----/6--6||
D||-------------------------||


[Verse 2] (distorsion)
Guitar 1

             PM PM PM   PM  PM PM PM    PM
D||-----------------------------------------------------||
A||-----------------------------------------------------||
F||-----6-------------6--------------6------------------||
C||-----6----6--6--6--6--6--6--6--6--6--6---7--6--4--6--|| 
G||-----4----4--4--4--4--4--4--4--4--4--4---------------||  
D||-----------------------------------------------------||
     PM PM PM    PM
D||------------------------------------------------------------------||
A||------------------------------------------------------------------||
F||-----------6---------------------2--2--2--2--2--2--2--------1-----||
C||--6--6--6--6--6--7-x-6-x-4-x-6---2--2--2--2--2--2--2---2h4-----4--||
G||--4--4--4--4--4------------------0--0--0--0--0--0--0--------------||
D||------------------------------------------------------------------||

     PM PM PM                            
D||------------------------------------||
A||------------------------------------||
F||-----------4------------------------|| whole thing 2x
C||--4--4--4--4-------/6--6----/4--4---||
G||--2--2--2--2-------/7--7----/6--6---||
D||------------------------------------||


Guitar 2

             PM PM PM PM    PM PM PM    PM
D||-----------------------------------------------------||
A||-----------------------------------------------------||
F||-----6-------------6--------------6------------------||
C||-----6----6--6--6--6--6--6--6--6--6--6---------------|| 
G||-----4----4--4--4--4--4--4--4--4--4--4---9--7--6--7--||  
D||-----------------------------------------------------||
     PM PM PM    PM
D||------------------------------------------------------------------||
A||------------------------------------------------------------------||
F||-----------6---------------------2--2--2--2--2--2--2--------------||
C||--6--6--6--6--6------------------2--2--2--2--2--2--2--------------||
G||--4--4--4--4--4--9-x-7-x-6-x-7---0--0--0--0--0--0--0---4h6--7--6--||
D||------------------------------------------------------------------||

     PM PM PM                            
D||------------------------------------||
A||------------------------------------||
F||-----------4------------------------|| whole thing 2x
C||--4--4--4--4-------/6--6----/4--4---||
G||--2--2--2--2-------/7--7----/6--6---||
D||------------------------------------||


[Outro]

(It's easy to figure out)

D||--------------------------||
A||--------------------------||
F||--2--2--4--4--------6--6--||
C||--2--2--4--4--2--2--6--6--||
G||--0--0--2--2--2--2--4--4--||
D||--------------0--0--------||

D||---------------------||
A||---------------------||
F||--2--2--4--4---------||
C||--2--2--4--4---------||
G||--0--0--2--2----12\--||
D||----------------12\--||

D||--------------------------||
A||--------------------------||
F||--2--2--4--4--------6--6--||
C||--2--2--4--4--2--2--6--6--||
G||--0--0--2--2--2--2--4--4--||
D||--------------0--0--------||

D||---------------------||
A||---------------------||
F||--2--2--4--4---------||
C||--2--2--4--4----2~~--||
G||--0--0--2--2----2~~--||
D||----------------0~~--||



This is my first tab so be gentle, you can e-mail me corrections sammyn@suomi24.fi
updated 19.03.2009



************************************

| x    Dead note
| (n)  Ghost note
| h    Hammer-on
| p    Pull-off
| /    Slide up
| \    Slide down
| ~    Vibrato

************************************

            
            
Suggest correction
Creating personal tab
Creating personal tab
You can edit any tab online and save it as your Personal.

You can edit, replace or remove any tab part or add personal notes – all changes will be seen only by you.

Personal tabs can be accessed anytime from any device, even offline.
Learn more »
comments
print report bad tab
23 comments total. Showing first comments. show 1 bad comment
+3 reply
macball22 10 Mar 13, 2009 07:42 AM

this is a great tab. the best ive seen so far. nice job!!

+2 reply
warrior_zero 10 Mar 13, 2009 02:38 PM

Sweet! its finally tabbed pretty close to almost Perfect. 5 stars

guest
You may want to rate the tab now too:
select rating
Wanna post a correction for this tab? Suggest correction