Oops, an error
Loading. Please wait.
We have an official Room 409 tab made by UG professional guitarists. Check out the tab »
×
13,299 views 1 this week
5 commentsread comments
1 2 3 4 5
x 9
add to favorites
×
Save as Personal and add changes to this tab that will be seen only by you. Learn more ›
×
You can save this tab as Personal to edit and correct it or add notes. All changes will be seen only by you. Learn more »
launch autoscroll
font size
0
reset
guitar tuner
backing track
0:00
0:00
edit
Autoscroll
slow
fast
+/-
esc
set tempo
stop
Difficulty
the exact bass tabs for room 409 

email me at screamaimfire@hotmail.co.uk

please enjoy i insist ;]

intro (wait till all instrements come in)

|---------------------|-----------------|------------------------|
|---------------------|-----------------|------------------------|
|---------------------|-----------------|------------------------|
|-8-0-0-0-8-0-0-0-0-0-|-7-0-0-0-7-0-0-x-|-8-0-0-0-8-0-0-0-0-0-8/-|

|-----------------------------------------------------------------|
|-----------------------------------------------------------------|
|-----------------------------------------------------------------|
|-7-0-0-0-7-0-0-0-00-00-5-0-0-0-5-0-0-0-0-0-7-0-0-0-7-0-0-0-00-00-|

|------------------------|
|------------------------|
|------------------------|
|-8888-7777-55-7777-55-3-|

|-----------------------------------------------------------------|
|-----------------------------------------------------------------|
|-----------------------------------------------------------------|
|-7-0-0-0-7-0-0-0-00-00-5-0-0-0-5-0-0-0-0-0-7-0-0-0-7-0-0-0-00-00-|

|---------------------|
|---------------------|
|---------------------|
|-8~-7~-5~-7~-5~-3-0~-|



verse (I, Cant Believe...)
|-------------------------------------|
|-------------------------------------|
|-----7-5----8-7----10-8--------------|x2 
|-0000---0000---0000----8888-10101010-|

(10101010 = 10 10 10 10 not 1 0 1 0 1 0 1 0)  

|-------------------------------------|
|-------------------------------------|
|-------------------------------------|
|-0000~--0000~--0000~--8888-10101010--|

|-------------------------------------|
|-------------------------------------|
|-------------------------------------|
|-0000---0000---0000---8888-10101010--|



pre chorus (I loved you..)
|---------------------|-----------------|---------------------|--------|
|---------------------|-----------------|---------------------|--------|
|---------------------|-----------------|---------------------|--------|
|-8-0-0-0-8-0-0-0-0-0-|-7-0-0-0-7-0-0-x-|-8-0-0-0-8-0-0-0-0-0-|-8-8-8-8|



chorus
|-----------------------------------------------------------------|
|-----------------------------------------------------------------|
|-----------------------------------------------------------------|
|-7-0-0-0-7-0-0-0-00-00-5-0-0-0-5-0-0-0-0-0-7-0-0-0-7-0-0-0-00-00-|

|------------------------|
|------------------------|
|------------------------|
|-8888-7777-55-7777-55-3-|

|-----------------------------------------------------------------|
|-----------------------------------------------------------------|
|-----------------------------------------------------------------|
|-7-0-0-0-7-0-0-0-00-00-5-0-0-0-5-0-0-0-0-0-7-0-0-0-7-0-0-0-00-00-|

|---------------------|
|---------------------|
|---------------------|
|-8~-7~-5~-7~-5~-3-0~-|



verse (I, Take a step...)
|-------------------------------------|
|-------------------------------------|
|-----7-5----8-7----10-8--------------|x2 
|-0000---0000---0000----8888-10101010-|

(10101010 = 10 10 10 10 not 1 0 1 0 1 0 1 0)  

|-------------------------------------|
|-------------------------------------|
|-------------------------------------|
|-0000~--0000~--0000~--8888-10101010--|

|-------------------------------------|
|-------------------------------------|
|-------------------------------------|
|-0000---0000---0000---8888-10101010--|



pre chorus (I loved you..)
|---------------------|-----------------|---------------------|--------|
|---------------------|-----------------|---------------------|--------|
|---------------------|-----------------|---------------------|--------|
|-8-0-0-0-8-0-0-0-0-0-|-7-0-0-0-7-0-0-x-|-8-0-0-0-8-0-0-0-0-0-|-8-8-8-8|



chorus
|-----------------------------------------------------------------|
|-----------------------------------------------------------------|
|-----------------------------------------------------------------|
|-7-0-0-0-7-0-0-0-00-00-5-0-0-0-5-0-0-0-0-0-7-0-0-0-7-0-0-0-00-00-|

|------------------------|
|------------------------|
|------------------------|
|-8888-7777-55-7777-55-3-|

|-----------------------------------------------------------------|
|-----------------------------------------------------------------|
|-----------------------------------------------------------------|
|-7-0-0-0-7-0-0-0-00-00-5-0-0-0-5-0-0-0-0-0-7-0-0-0-7-0-0-0-00-00-|

|---------------------|
|---------------------|
|---------------------|
|-8~-7~-5~-7~-5~-3-0~-|



solo
|-------------------------------------|
|-------------------------------------|
|-----7-5----8-7----10-8--------------|x2 
|-0000---0000---0000----8888-10101010-|

(10101010 = 10 10 10 10 not 1 0 1 0 1 0 1 0)  



bridge (whooo-oh-uh-uh-oh)
|---------------------------------|--------------------|
|---------------------------------|--------------------|
|---------------------------------|--------------------|
|-8-8-8-8-8-8-8-8-8-8-8-8-8-8-8-8-|-0-0--2-2--3-3--5-5-|

|---------------------------------|----------------------|
|---------------------------------|----------------------|
|---------------------------------|----------------------|
|-8-8-8-8-8-8-8-8-8-8-8-8-8-8-8-8-|-0-0--2-2--3-3--5-5--0|



Bridge (hey, theres no excuses)
|-------------------------|-------------------------|
|-------------------------|-------------------------|
|-------------------------|-------------------------|
|-8-0--8-0----8-0--10-8-7-|-8-0--8-0----8-0--10-8-7-|

|---------------------------------|---------------------------------|
|---------------------------------|---------------------------------|
|---------------------------------|---------------------------------|
|-8-0--8-0--0-0-0-0-0-8-0--10-8-7-|-8-0--8-0--0-0-0-0-0-8-0--10-8-7-|



pre chorus (I loved you..)
|---------------------|-----------------|---------------------|
|---------------------|-----------------|---------------------|
|---------------------|-----------------|---------------------|
|-8-0-0-0-8-0-0-0-0-0-|-7-0-0-0-7-0-0-x-|-8-0-0-0-8-0-0-0-0-0-|



chorus
|-----------------------------------------------------------------|
|-----------------------------------------------------------------|
|-----------------------------------------------------------------|
|-7-0-0-0-7-0-0-0-00-00-5-0-0-0-5-0-0-0-0-0-7-0-0-0-7-0-0-0-00-00-|

|------------------------|
|------------------------|
|------------------------|
|-8888-7777-55-7777-55-3-|

|-----------------------------------------------------------------|
|-----------------------------------------------------------------|
|-----------------------------------------------------------------|
|-7-0-0-0-7-0-0-0-00-00-5-0-0-0-5-0-0-0-0-0-7-0-0-0-7-0-0-0-00-00-|

|------------------------|
|------------------------|
|------------------------|
|-8888-7777-55-7777-55-3-|




outro
|-----------------------------|
|-----------------------------|
|-----------------------------|
|-0000---0000---0000--0--0--0-|

            
            
Suggest correction
Creating personal tab
Creating personal tab
You can edit any tab online and save it as your Personal.

You can edit, replace or remove any tab part or add personal notes – all changes will be seen only by you.

Personal tabs can be accessed anytime from any device, even offline.
Learn more »
comments
print report bad tab
5 comments total. Showing first comments.
0 reply
Thespade22 101 Sep 27, 2008 04:57 PM

spot-on m8

just curious is this from the tabbook?(not tht thats a bad thing, just wanna know since u said "exact tabs" :P)

+1 reply
deityfan 10 Feb 08, 2009 06:16 AM

just at the end when it goes higher in that riff i think it goes to 11 and the same pattern but there, goes along with the guitar and sounds pretty good i think

0 reply
Gerbs 698 Jul 27, 2009 08:00 AM

Not spot on, but it's a good enough tab :)

guest
Wanna post a correction for this tab? Suggest correction