Oops, an error
Loading. Please wait.

Say Goodnight Acousitc tab

version 2
version 2

Whole song

Interactive

686 views 1 this week
1 commentread comment
1 2 3 4 5
3 more votes to show rating
add to favorites
×
Save as Personal and add changes to this tab that will be seen only by you. Learn more ›
×
You can save this tab as Personal to edit and correct it or add notes. All changes will be seen only by you. Learn more »
launch autoscroll
font size
0
reset
how to read this tab
guitar tuner
edit
Autoscroll
slow
fast
+/-
esc
set tempo
stop
Most of the tabs for this song I looked up were wrong so I thought I'd post my own, 
which I do believe is most
 correct.
*To get the echo-type sound at 0:10,I do believe it was a combination of steel-
 string and nylon string acoustics if you wanted to try that over recording or with a 
buddy. You may end up getting
 different tones either way as long as you don't have the exact same acoustics.*  Enjoy!

 s=sustain   ph=pinch harmonic   d=dead chord   h=harmonic   pm=palm mute   sl=slap

 So there's no confusion, the "slap" if you don't recognize the term is in other words 
the drum, beat, tap,
 whatever you want to call it. Basically hitting the string.

Intro
D/----------------------|--------------------------|
A/----------------------|--------------------------|
F/------------0---------|--------0-----------0-----|
C/-------4------4-----4-|-----------4-----4-----4--|  *Repeat 4x's*
G/----7-----7------7----|-----7--------5-----------|
D/-0--------------------|--0-----------------------|

Verse 1
D/--------------0-----------|--------------------------|
A/--------0--------0--------|--------------------------|
F/-----------0--------0-----|-----------0--------0-----|
C/--------------------------|-------4---------4-----4--|  *Repeat 3x's*
G/----7------------------2--|---3----------5----------5|
D/-0------------------------|--------------------------|  then

D/--------------0-----------|--0s--|-------|----Guitar 2------------|
A/--------0--------0--------|--3s--|-------|------------------------|
F/-----------0--------0-----|--0s--|-------|--5ph-4ph---------------|  (Harmonizes with
C/--------------------------|--2s--|-------|-----------|    the 3-2-| on D)
G/----7------------------2--|--3s--|-------|------------------------|
D/-0------------------------|------|--3-2--|------------------------|

(Verse)
D/--------------0-----------|---------------------------|
A/--------0--------0--------|---------------------------|
F/-----------0--------0-----|--------0--------0---------|
C/--------------------------|-----4--------4-----4------|  *Repeat 4x's*
G/----7------------------2--|--3--------5-----------5---|
D/-0------------------------|---------------------------|

Guitar 2 (In the background)
D/----------|
A/----------|
F/-5ph------|
C/-----0ph--|
G/----------|
D/----------|

Guitar 1
D/--------|
A/--------|
F/--------|
C/-2d-2d--|
G/-3d-3d--|
D/-0d-0d--|

Chorus
D/-------------0----------|--------0-----|-------------|
A/----------3-----3-3-----|-----------3--|-------------|
F/-------0----------------|-----0--------|-------0-----|
C/----2-------------------|--------------|----------4--|
G/-3-------------------3--|--3-----------|--3-5--------|
D/------------------------|--------------|-------------|

D/-------------0----------|---------|-------------|
A/----------3-----3-3-----|---------|-------------|
F/-------0----------------|--0h-0s--|-------0-----|
C/----2-------------------|--2h-2s--|----------4--|
G/-3-------------------3--|--3h-3s--|--3-5--------|
D/------------------------|---------|-------------|

(Chorus)
D/-------------0----------|--------0-----|-------------|
A/----------3-----3-3-----|-----------3--|-------------|
F/-------0----------------|-----0--------|-------0-----|
C/----2-------------------|--------------|----------4--|
G/-3-------------------3--|--3-----------|--3-5--------|
D/------------------------|--------------|-------------|

D/-0s--|--5ph---------------------|
A/-0s--|-------5ph----------------|
F/-0s--|------------5ph-4ph-------|
C/-2s--|---------------------5ph--|
G/-2s--|--------------------------|
D/-----|--------------------------|

Guitar 2 (After 0ph on C)
D/------|
A/------|
F/------|
C/------|
G/------|
D/-3-2--|

Verse 2
D/--------------0-----------|---------------------------|
A/--------0--------0--------|---------------------------|
F/-----------0--------0-----|----------0---------0------|
C/--------------------------|-------4---------4-----4---|  *Repeat 3x's*
G/----7------------------2--|----3---------5-----------5|
D/-0------------------------|---------------------------|  then

D/--------------0-----------|--0s--|----------------------|
A/--------0--------0--------|--3s--|----------------------|
F/-----------0--------0-----|--0s--|--5ph-4phs--4ph-------|
C/--------------------------|--2s--|-----------------5ph--|
G/----7------------------2--|--3s--|----------------------|
D/-0------------------------|------|----------------------|

Guitar 2 (After 5ph on C)
D/------|
A/------|
F/------|
C/------|
G/------|
D/-3-2--|

(Verse)
D/--------------0-----------|---------------------------|
A/--------0--------0--------|---------------------------|
F/-----------0--------0-----|--------0---------0--------|
C/--------------------------|-----4--------4------4-----|  *Repeat 4x's*
G/----7------------------2--|--3--------5------------5--|
D/-0------------------------|---------------------------|

Guitar 2 (In the background)
D/----------|
A/----------|
F/-5ph------|
C/-----0ph--|
G/----------|
D/----------|

Guitar 1
D/--------|
A/--------|
F/--------|
C/-2d-2d--|
G/-3d-3d--|
D/-0d-0d--|

Chorus
D/-------------0----------|--------0-----|-------------|
A/----------3-----3-3-----|-----------3--|-------------|
F/-------0----------------|-----0--------|-------0-----|
C/----2-------------------|--------------|----------4--|
G/-3-------------------3--|--3-----------|--3-5--------|
D/------------------------|--------------|-------------|

D/-------------0----------|---------|-------------|
A/----------3-----3-3-----|---------|-------------|
F/-------0----------------|--0h-0s--|-------0-----|
C/----2-------------------|--2h-2s--|----------4--|
G/-3-------------------3--|--3h-3s--|--3-5--------|
D/------------------------|---------|-------------|

(Chorus)
D/-------------0----------|--------0-----|-------------|
A/----------3-----3-3-----|-----------3--|-------------|
F/-------0----------------|-----0--------|-------0-----|
C/----2-------------------|--------------|----------4--|
G/-3-------------------3--|--3-----------|--3-5--------|
D/------------------------|--------------|-------------|

D/-0s--|-----------------------|-------------------|
A/-0s--|-----------------------|-------------------|
F/-0s--|-----------------------|--5-5-------7-7-7--|
C/-2s--|--2-2-2-2-2-2-2-2-2-2--|--5-5--5-5--7-7-7--|
G/-2s--|--2-2-2-2-2-2-2-2-2-2--|--2-2--5-5--5-5-5--|
D/-----|--0-0-0-0-0-0-0-0-0-0--|-------3-3--5-5-5--|

(Coda) *Repeated 4x's*
D/------------0-0-0-----------------------|
A/------------0-0-0-----------------------|
F/------------0-0-0-5s-3-5---------7-7-7--|
C/-2-2h,pm,sl-2-2-2-5s-5-5-5h-5h-5-7-7-7--|
G/-2-2h,pm,sl-2-2-2-3s-3-3-5h-5h-5-5-5-5--|
D/-0-0..pm,sl-0-0-0--------3h-3h-3-5-5-5--|

D/------------0-0-0-----------------------------|
A/------------0-0-0------------------------0-0--|
F/------------0-0-0-5s-5-5-----------------0-0--|
C/-2-2h,pm,sl-2-2-2-5s-5-5-5h-5h-5-4h-4h-4-2-2--|
G/-2-2h,pm,sl-2-2-2-3s-3-3-5h-5h-5-4h-4h-4-2-2--|
D/-0-0..pm,sl-0-0-0--------3h-3h-3-2h-2h-2------|

D/-0s--|--------------------------0s--|
A/-0s--|--------------------------0s--|
F/-0s--|--------0--------0--------0s--|
C/-2s--|-----4--------4-----4-----2s--|  *Repeated 2x's*
G/-2s--|--3--------5-----------5--2s--|
D/-----|------------------------------|   then

D/-0s--|-----------------------------------------------|
A/-0s--|-----------------------------------------------|
F/-0s--|--------0--------0-----------------------------|
C/-2s--|-----4--------4-----4-----2-2-2-2-2-2-2-2-2-2--|
G/-2s--|--3--------5-----------5--2-2-2-2-2-2-2-2-2-2--|
D/-----|--------------------------0-0-0-0-0-0-0-0-0-0--|


(Coda Repeated 2x's)
D/------------------|-------------0-0-0-----------------------|
A/------------------|-------------0-0-0-----------------------|
F/-5-5-------7-7-7--|-------------0-0-0-5s-3-5---------7-7-7--|
C/-5-5--5-5--7-7-7--|--2-2h,pm,sl-2-2-2-5s-5-5-5h-5h-5-7-7-7--|
G/-3-3--5-5--5-5-5--|--2-2h,pm,sl-2-2-2-3s-3-3-5h-5h-5-5-5-5--|
D/------3-3--5-5-5--|--0-0..pm,sl-0-0-0--------3h-3h-3-5-5-5--|

D/------------0-0-0-----------------------------|
A/------------0-0-0------------------------0-0--|
F/------------0-0-0-5s-5-5-----------------0-0--|
C/-2-2h,pm,sl-2-2-2-5s-5-5-5h-5h-5-4h-4h-4-2-2--|
G/-2-2h,pm,sl-2-2-2-3s-3-3-5h-5h-5-4h-4h-4-2-2--|
D/-0-0..pm,sl-0-0-0--------3h-3h-3-2h-2h-2------|

D/-0s--|
A/-0s--|
F/-0s--|
C/-2s--|
G/-2s--|
D/-----|

            
            
Suggest correction
Creating personal tab
Creating personal tab
You can edit any tab online and save it as your Personal.

You can edit, replace or remove any tab part or add personal notes – all changes will be seen only by you.

Personal tabs can be accessed anytime from any device, even offline.
Learn more »
Give kudos to tab author, rate the tab!
1 2 3 4 5
comments
print report bad tab
1 comment total.
0 reply
Hexomazifra 57 Dec 12, 2012 09:52 AM

Hey everybody. I tabbed this song a year ago and have gained more experience since. This tab is not 100% and tabs take a long time to do and I don't want to go over all the dash lines again just to make a few corrections. It for the most part is correct and what you think isn't you should be able to figure out easily by ear or by others tabs if you're not that experienced. For instance, there are no pinch harmonics. Sorry for any confusion. The "pinch harmonics" are just harmonics on the bar beside the listed frets and so on.

guest
You may want to rate the tab now too:
select rating
Wanna post a correction for this tab? Suggest correction