Oops, an error
Loading. Please wait.
We have an official Say Goodnight tab made by UG professional guitarists. Check out the tab »
×
13,780 views 3 this week
2 commentsread comments
1 2 3 4 5
x 9
add to favorites
×
Save as Personal and add changes to this tab that will be seen only by you. Learn more ›
×
You can save this tab as Personal to edit and correct it or add notes. All changes will be seen only by you. Learn more »
launch autoscroll
font size
0
reset
guitar tuner
backing track
0:00
0:00
edit
Autoscroll
slow
fast
+/-
esc
set tempo
stop
-----------------------------------------------------------------------
                 Say Goodnight - Bullet for My Valentine
-----------------------------------------------------------------------

Tabbed By: dannyloughran 

Tuning: Down 1 Whole Step (DGCF)

Intro (Enter 0:42)
F|----------------------------------------------------------------|
C|----------------------------------------------------------------|
G|-----------------3-3~---5~--------------------------------------|
D|-0~~---0-0-----0-----------------3------------------------------|x3

F|----------------------------------------------------------------|
C|----------------------------------------------------------------|
G|-----------------3-3~---5~--------------------------------------|
D|-0~~---0-0-----0------------------------------------------------|

F|----------------------------------------------------------------|
C|----------------------------------------------------------------|
G|-3~~---3-3-----3~~--3h5---5----7~~---7-7----7-7~---7p5---5------|
D|----------------------------------------------------------------|

F|----------------------------------------------------------------|
C|----------------------------------------------------------------|
G|-3~~---3-3-----3~~--3h5---5----7~~------------------------------|
D|----------------------------------------------3-2---------------|

Verse 1 (1:14)
F|----------------------------------------------------------------|
C|----------------------------------------------------------------|
G|-----5-5h7----3-3-----5-----------------------------------------|
D|-0------------------------------3-2-----------------------------|x3

F|----------------------------------------------------------------|
C|----------------------------------------------------------------|
G|-----5-5h7----3~~-----------------------------------------------|
D|-0------------------------------3-2-----------------------------|

F|-----7h9-9v-----------------------------------------------------|
C|---9------------------------------------------------------------|
G|----------------3-3----5----5-----------------------------------|
D|-0-------------------------------3------------------------------|

F|-----7h9-9v-----------------------------------------------------|
C|---9-------------------------5-7--------------------------------|
G|----------------3-3----5----------------------------------------|
D|-0-------------------------------3------------------------------|

F|-----7h9-9v-----------------------------------------------------|
C|---9------------------------------------------------------------|
G|----------------3-3----5----5-----------------------------------|
D|-0-------------------------------3------------------------------|

F|-----7h9-9v-----------------------------------------------------|
C|---9------------------------------------------------------------|
G|----------------3-----5-----------------------------------------|
D|-0--------------------------------------------------------------|

Chorus (1:50)
F|----------------------------------------------------------------|
C|---------------------------------------9------------------------|
G|--3--3--3~-----3--3--3--5~--------7-7-7---7-10-9-7-5-7-5--------|
D|----------------------------------------------------------------|

F|----------------------------------------------------------------|
C|----------------------------------------------------------------|
G|--3--3--3~-----3--3--3--5~--------------------------------------|
D|-----------------------------3----0~~---------------------------|


Bridge (2:07)
F|----------------------------------------------------------------|
C|----------------------------------------------------------------|
G|-----------------3-3~---5~----5---------------------------------|
D|-0~~---0-0-----0-----------------3------------------------------|x3

F|----------------------------------------------------------------|
C|----------------------------------------------------------------|
G|-----------------3~---------------------------------------------|
D|-0~~---0-0-----0---------3-2-0~~--------------------------------|

Verse 2 (2:21)
F|----------------------------------------------------------------|
C|----------------------------------------------------------------|
G|-----5-5h7------3-3-----5---------------------------------------|
D|-0------------------------------3-2-----------------------------|x3

F|----------------------------------------------------------------|
C|----------------------------------------------------------------|
G|-----5-5h7------3-3~~-------------------------------------------|
D|-0------------------------------3-2-----------------------------|

F|-----7h9-9v-----------------------------------------------------|
C|---9------------------------------------------------------------|
G|----------------3-3----5----5-----------------------------------|
D|-0-------------------------------3------------------------------|

F|-----7h9-9v-----------------------------------------------------|
C|---9-------------------------5-7--------------------------------|
G|----------------3-3----5----------------------------------------|
D|-0-------------------------------3------------------------------|

F|-----7h9-9v-----------------------------------------------------|
C|---9------------------------------------------------------------|
G|----------------3-3----5----5-----------------------------------|
D|-0-------------------------------3------------------------------|

F|-----7h9-9v-----------------------------------------------------|
C|---9------------------------------------------------------------|
G|----------------3-----5-----------------------------------------|
D|-0--------------------------------------------------------------|

Chorus (2:55)
F|----------------------------------------------------------------|
C|----------------------------------------9-----------------------|
G|--3--3--3~-----3--3--3--5~--------7-7-7----7-10-9-7-5-7-5-------|
D|----------------------------------------------------------------|

F|----------------------------------------------------------------|
C|----------------------------------------------------------------|
G|--3--3--3~-----3--3--3--5~------------------------3-3-----5-5---|
D|-------------------------------0-0-0-0-0-0-0-0-0------3-3-------|

Breakdown (3:12)
F|----------------------------------------------------------------|
C|----------------------------------------------------------------|
G|-------------------3~----------------5--------------------------|
D|-0-0-----0-0--------------------3-------------------------------|

F|----------------------------------------------------------------|
C|----------------------------------------------------------------|
G|-------------------3~-----5-5-5-5-5-5---------------------------|
D|-0-0-----0-0--------------------------5-5-5-5-3-3-3-3-----------|

F|----------------------------------------------------------------|
C|----------------------------------------------------------------|
G|-------------------3~----------------5--------------------------|
D|-0-0-----0-0--------------------3-------------------------------|

F|----------------------------------------------------------------|
C|----------------------------------------------------------------|
G|-------------------3~-----5-8-5-0-------------------------------|
D|-0-0-----0-0----------------------5-0-5-8-5-0-3-6-3-0-----------|

Interlude (3:28)
F|----------------------------------------------------------------|
C|----------------------------------------------------------------|
G|-------------------------3-3-3-3-3-3-3-3-3-3-3-3---------5-5-5-5|
D|-0-0-0-0-0-0-0-0-0-0-0-0-------------------------3-3-3-3--------|

F|----------------------------------------------------------------|
C|----------------------------------------------------------------|
G|-------------------------3-3-3-3-3-3-5-5-5-5-5-5----------------|
D|-0-0-0-0-0-0-0-0-0-0-0-0-------------------------5-5-5-5-3-3-3-3|

F|----------------------------------------------------------------|
C|----------------------------------------------------------------|
G|-------------------------3-3-3-3-3-3-3-3-3-3-3-3---------5-5-5-5|
D|-0-0-0-0-0-0-0-0-0-0-0-0-------------------------3-3-3-3--------|

F|----------------------------------------------------------------|
C|----------------------------------------------------------------|
G|-------------------------3-3-3-3-3-3-5-5-5-5-5-5----------------|
D|-0-0-0-0-0-0-0-0-0-0-0-0-------------------------5-5-5-5-3-3-3-3|

Bridge 2 (3:45)
F|----------------------------------------------------------------|
C|----------------------------------------------------------------|
G|-------------3~------5~-----------------------------------------|
D|-0~~-------------------------3-2-0~~----------------------------|x4

Bass Section (4:02)
F|----------------------------------------------------------------|
C|---7—9~------7-9~---------------7-9~----------------------------|
G|------------------7~~-------------------------------------------|
D|-0---------0------------0-----0----------0-0-0-0-0-0-12\--------|

Breakdown (4:09)
F|----------------------------------------------------------------|
C|----------------------------------------------------------------|
G|-------------------3~----------------5--------------------------|
D|-0-0-----0-0--------------------3-------------------------------|

F|----------------------------------------------------------------|
C|----------------------------------------------------------------|
G|-------------------3~-----5-5-5-5-5-5---------------------------|
D|-0-0-----0-0--------------------------5-5-5-5-3-3-3-3-----------|

F|----------------------------------------------------------------|
C|----------------------------------------------------------------|
G|-------------------3~----------------5--------------------------|
D|-0-0-----0-0--------------------3-------------------------------|

F|----------------------------------------------------------------|
C|----------------------------------------------------------------|
G|-------------------3~-----5-8-5-0-------------------------------|
D|-0-0-----0-0----------------------5-0-5-8-5-0-3-6-3-0-----------|

Outro (4:26)
F|----------------------------------------------------------------|
C|----------------------------------------------------------------|\
G|-----------------------------------5-8-5-0----------------------| \
D|-0-0-0-0-0-0-0-0-0-0-0-0-0-0-0-0-0---------5-0-5-8-5-0-3-6-3-0--|  \
                                                                  OR x3
F|----------------------------------------------------------------|  /    
C|----------------------------------------------------------------| /
G|-----------------------------------5-5-5-5-5-5------------------|/
D|-0-0-0-0-0-0-0-0-0-0-0-0-0-0-0-0-0-------------5-5-5-5-3-3-3-3--| 

F|----------------------------------------------------------------|
C|----------------------------------------------------------------|
G|-----------------------------------5-5-5-5-5-5--------5~--------|
D|-0-0-0-0-0-0-0-0-0-0-0-0-0-0-0-0-0-------------3~---------------|

F|----------------------------------------------------------------|
C|----------------------------------------------------------------|
G|----------------------------------------------------------------|
D|-0-0-0-0---0-0-0-0-0-0-0----------------------------------------|

Enjoy :)
Please rate this and my other tabs, any mistakes, corrections or comments, let me know. Thanks

| /  slide up
| \  slide down
| h  hammer-on
| p  pull-off
| v  vibrato
| r  rest
| ~  let ring
| x  mute note
|(?) ghost note
=====================================================================

            
            
Suggest correction
Creating personal tab
Creating personal tab
You can edit any tab online and save it as your Personal.

You can edit, replace or remove any tab part or add personal notes – all changes will be seen only by you.

Personal tabs can be accessed anytime from any device, even offline.
Learn more »
comments
print report bad tab
2 comments total.
0 reply
dannyloughran 430 Nov 15, 2008 06:04 AM

Any comments on why this is 3 stars? Any mistakes or corrections let me know...

+1 reply
thesickness09 40 Dec 16, 2008 04:55 PM

i dont know why its 3 stars cuz i think its pretty damn good

guest
You may want to rate the tab now too:
select rating
Wanna post a correction for this tab? Suggest correction