Oops, an error
Loading. Please wait.
We have an official Say Goodnight tab made by UG professional guitarists. Check out the tab »
×
212,371 views 81 this week
34 commentsread comments
1 2 3 4 5
x 34
add to favorites
×
Save as Personal and add changes to this tab that will be seen only by you. Learn more ›
×
You can save this tab as Personal to edit and correct it or add notes. All changes will be seen only by you. Learn more »
launch autoscroll
font size
0
reset
how to read this tab
guitar tuner
backing track
0:00
0:00
edit
Autoscroll
slow
fast
+/-
esc
set tempo
stop
Bullet For My Valentine
Say Goodnight

I think the electric version is in drop D so I just set this as
too. If you wanna make it sound perfect, use steel strings. That's what Matt uses in 
song. Enjoy! 

[Intro]
E|--------------------------|--------------------------|
B|--------------------------|--------------------------|
G|--------------0-----------|--------0-----------0-----|
D|--------4--------4-----4--|-----------4--0--4-----4--| REPEAT UNTIL VERSE 1
A|-----7-----7--------7-----|-----7--------------------|
E|--0-----------------------|--0-----------------------|

[Verse 1]
E|--------------------------|--------------------------|--------------------------|
B|--------------5--0--------|--------------------------|--------------5--0--------|
G|--------4--0--------0-----|--------------------------|--------4--0--------0-----|
D|--------------------------|-----4--5-----4--5--4-----|--------------------------|
A|-----7-----------------2--|--3--------5-----------5--|-----7-----------------2--|
E|--0-----------------------|--------------------------|--0-----------------------|


E|--------------------------|--------------------------|--------------------------|
B|---3----------------------|--------------5--0--------|--------------------------|
G|---0----------------------|--------4--0--------0-----|--------------------------|
D|---2---------------5--4---|--------------------------|-----4--5-----4--5--4-----|
A|---3----------------------|-----7-----------------2--|--3--------5-----------5--|
E|--------------------------|--0-----------------------|--------------------------|

E|--------------------------|--------------------------|
B|--------------5--0--------|--------------------------|
G|--------4--0--------0-----|--------------------------|
D|--------------------------|-----4--5-----4--5--4-----|
A|-----7-----------------2--|--3--------5-----------3--|
E|--0-----------------------|--------------------------|

[Chorus]
E|--------------0-----------|--------0-------------------|--------------------------|
B|--------3--------3--3-----|-----------3----------------|--------------5--0--------|
G|-----------0--------------|-----0----------------------|--------4--0--------0-----|
D|-----2--------------------|-------------------4--5--4--|--------------------------|
A|--3--------------------3--|--3-----------3/5-----------|-----7--------------------|
E|--------------------------|----------------------------|--0--------------------0--|

E|-------0-------------------|--------------0-----------|-------0-------------------|
B|----------3----------------|--------3--------3--3-----|----------3----------------|
G|----0----------------------|-----------0--------------|----0----------------------|
D|------------------4--5--4--|-----2--------------------|------------------4--5--4--|
A|-3-----------3/5-----------|--3--------------------3--|-3-----------3/5-----------|
E|---------------------------|--------------------------|---------------------------|

E|--0~---|-------------------|--------------------------|--------------------------|
B|--5~---|-------------------|--------------5--0--------|--------------------------|
G|--4~---|-------------------|--------4--0--------0-----|--------------------------|
D|--0~---|------------5--4---|--------------------------|-----4--5-----4--5--4-----|
A|--7~---|-------------------|-----7-----------------2--|--3--------5-----------3--|
E|--0~---|-------------------|--0-----------------------|--------------------------|

E|--------------------------|--------------------------|--------------------------|
B|--------------5--0--------|--------------------------|--------------5--0--------|
G|--------4--0--------0-----|--------------------------|--------4--0--------0-----|
D|--------------------------|-----4--5-----4--5--4-----|--------------------------|
A|-----7-----------------2--|--3--------5-----------3--|-----7-----------------2--|
E|--0-----------------------|--------------------------|--0-----------------------|

E|--------------------------|--------------------------|
B|--------------------------|--------------5--0--------|
G|--------------------------|--------4--0--------0-----|   <--- X2
D|-----4--5-----4--5--4-----|--------------------------|
A|--3--------5-----------3--|-----7-----------------2--|
E|--------------------------|--0-----------------------|

[Chorus 2]
(Chorus 1 repeat)

[Verse 2]
E|-------0-------------------|--------------------------|-----------------------------|
B|----------3----------------|--------------------------|-----------------------------|
G|----0----------------------|--------------------------|------5--5-----------7--7--7-|
D|------------------4--5--4--|--2--2--2--2--2--2--2--2--|--2---5--5--5--5--5--7--7--7-|
A|-3-----------3/5-----------|--2--2--2--2--2--2--2--2--|--2---3--3--5--5--5--5--5--5-|
E|---------------------------|--0--0--0--0--0--0--0--0--|--0---------3--3--3----------|

E|------------------------------|--------------------------|
B|------------------------------|--------------------------|
G|---------------------------5--|--5--5-----------7--7--7--|   <--- X8
D|--2------x--2--2--2--x--2--5--|--5--5--5--5--5--7--7--7--|
A|--2------x--2--2--2--x--2--3--|--3--3--5--5--5--5--5--5--|
E|--0------x--0--0--0--x--0-----|--------3--3--3-----------|

[Break]
E|--------------------------|------|
B|--------------------------|------|
G|--------------------------|------|
D|-----4--5-----4--5--4-----|--2---|   <--- X3
A|--3--------5-----------3--|--2---|
E|--------------------------|--0---|

E|--------------------------|
B|--------------------------|
G|--------------------------|  <--- [then repeat verse 2 four times]
D|-----4--5-----4--5--4-----|
A|--3--------5-----------3--|
E|--------------------------|

E|-------|
B|-------|
G|-------|
D|--2~---|
A|--2~---|
E|--0~---|



************************************

| x  Dead note
| /  Slide up
| ~  Vibrato 

************************************

            
            
Suggest correction
Creating personal tab
Creating personal tab
You can edit any tab online and save it as your Personal.

You can edit, replace or remove any tab part or add personal notes – all changes will be seen only by you.

Personal tabs can be accessed anytime from any device, even offline.
Learn more »
comments
print report bad tab
34 comments total. Showing first comments.
0 reply
Pernicano22 30 Feb 27, 2008 06:20 AM

If its in drop D the regular power chords would be barred 5* tho :)

+2 reply
cheez1492 685 Feb 27, 2008 12:39 PM

hey man, i figured alot of this song out on my own and this tab looks great, just i'm almost positive the tuning is D standard
cuz when i play it, i have my guitar tuned to D standard and i use the same fingerings you have tabbed
still 5 stars, just saying you might wanna change your tuning

0 reply
takingfire21 40 Feb 28, 2008 07:38 PM

im not real great with the music theory stuff, but if the electrics are in standard down one full step to dgcfad arent the acoustics supposed to be. whatever doesnt matter nice tab 5*

guest
Wanna post a correction for this tab? Suggest correction