Oops, an error
Loading. Please wait.
We have an official Scream Aim Fire tab made by UG professional guitarists. Check out the tab »
×
20,929 views 1 this week
5 commentsread comments
1 2 3 4 5
x 3
add to favorites
×
Save as Personal and add changes to this tab that will be seen only by you. Learn more ›
×
You can save this tab as Personal to edit and correct it or add notes. All changes will be seen only by you. Learn more »
launch autoscroll
font size
0
reset
guitar tuner
backing track
0:00
0:00
edit
Autoscroll
slow
fast
+/-
esc
set tempo
stop
Bullet For My Valentine - Scream Aim Fire
I'm gona write this as a 5-string tab since that's what I've got and if you've got a 
then u can easily work it out from this. hardly a difficult song. only tabbed this cause i 
bored and my band is covering it.
The rhythm isn't what it is on this page but i did my best to try and make it fairly close.

G------------------------------------------|
D------------------------------------------|
A-----------------1-1-1-1---------3-3-3-3--| x2
E-------------------------1-1-1-1----------|
B-3-3-3-3-3-3-3-3--------------------------|


G------------------------------------------|
D------------------------------------------|
A-------------------------3-3-3-3-0--------| x2
E-----------------1-1-1-1------------------|
B-3-3-3-3-3-3-3-3--------------------------|


G------------------------------------------|
D------------------------------------------|
A-------------3--------------3-------------| x2
E----------1--------------1----------------|
B-3---3-3--------3---3-3-------------------|


G------------------------------------------|
D------------------------------------------|
A------------------------------------------|
E------------------------------------------|
B-3-3--3-3--3-3--3-3--3-3--3-3--3-3--3-3---|


G--------------------------------------------|
D--------------------------------------------|
A--------------------------------------------|
E----------------------------------------1-1-|
B-3-3--3-3--3-3--3-3--3-3--3-3--3-3--3-3-----|


G------------------------------------------|
D------------------------------------------|
A------------------------------------------|
E------------------------------------------|
B-3-3--3-3--3-3--3-3--3-3--3-3--3-3--3-3---|


G------------------------------------------------|
D------------------------------------------------|
A--------------------------------------------1-0-|
E----------------------------------------1-1-----|
B-3-3--3-3--3-3--3-3--3-3--3-3--3-3--3-3---------|


And those are the main riffs, easy to work out song order since it basically just goes 
them in this order twice.
Enjoy and comment if you think it's aweful or great, constructive critisism always welcome.

            
            
Suggest correction
Creating personal tab
Creating personal tab
You can edit any tab online and save it as your Personal.

You can edit, replace or remove any tab part or add personal notes – all changes will be seen only by you.

Personal tabs can be accessed anytime from any device, even offline.
Learn more »
Give kudos to tab author, rate the tab!
1 2 3 4 5
comments
print report bad tab
5 comments total. Showing first comments.
0 reply
wesfield 219 Feb 10, 2008 12:50 AM

not like the song sorry

-1 reply
Demon Lord 31 Feb 13, 2008 06:42 AM

well actually i'm pretty confident of this tab, if u think u can do better then feel free but i just played it thru again and it sounds fine to me unless u've got the 10 min version or summin.

-1 reply
thebassman12345 30 Mar 05, 2009 10:19 AM

um the B string is below the G string

guest
You may want to rate the tab now too:
select rating
Wanna post a correction for this tab? Suggest correction