Oops, an error
Loading. Please wait.
We have an official Scream Aim Fire tab made by UG professional guitarists. Check out the tab »
×
5,547 views 1 this week
3 commentsread comments
1 2 3 4 5
1 last vote to show rating
add to favorites
×
Save as Personal and add changes to this tab that will be seen only by you. Learn more ›
×
You can save this tab as Personal to edit and correct it or add notes. All changes will be seen only by you. Learn more »
launch autoscroll
font size
0
reset
guitar tuner
backing track
0:00
0:00
edit
Autoscroll
slow
fast
+/-
esc
set tempo
stop
Author
-------------------------------------------------------------------------------
		Scream Aim Fire - Bullet For My Valentine
-------------------------------------------------------------------------------

Tabbed By : bassbuzz


Tuning: Drop A (?)
I used drop A tuning because I prefer playing in this tuning, because it's low enough to
all kind of songs, and easier to play songs like this, that are written for drop C
You can play this in normal tuning (BEADG), just put all the numbers on the lowest A 
2 numbers down.

Intro:
G|------------------------------------------------------------|x2|-------|
D|------------------------------------------------------------|x2|-------|
A|------------------------------------------------------------|x2|-------|
E|------------------------------------6666666666666666------8-|x2|-------|
A|-55555555555555555555555555555555---------------------8-----|x2|--5----|
  |--------------32x---------------|  |------16x-------------------------|

Verse:
G|------------------------------------------------------------|x2--|
D|------------------------------------------------------------|x2--|
A|------------------------------------------------------------|x2--|
E|-----------------------------------------------------8---5--|x2--|
A|-55555555555555555555555555555555---8888888888888888--------|x2--|
  |--------------32x---------------| |-------16x-------------------|

Pre-Chorus:
G|-------------|x2|---------------------------------------------------------------|
D|-------------|x2|---------------------------------------------------------------|
A|-------------|x2|---------------------------------------------------------------|
E|-----------8-|x2|-10--------------------------8-10--------------------------8---|
A|-5--5-5--8---|x2|----5555555555555555555555-8------5555555555555555555555-8-----|
                      |---------22x----------|      |----------22x----------------|

Chorus:
G|-------------------------------------------------------------|x2|-------|
D|-------------------------------------------------------------|x2|-------|
A|-------------------------------------------------------------|x2|-------|
E|------------------------------------6666666666666666------8--|x2|-------|
A|-55555555555555555555555555555555---------------------8------|x2|--5~---|
  |---------------32x--------------| |-------16x--------------------------|

Bridge:
G|-----------------------------------------------------------------|
D|-----------------------------------------------------------------|
A|-----------------------------------------------------------------|
E|-----------------------------------------------------------------|
A|-555-55-55-55-55-55-55-55-55---55-55-55-55-55-55-55-55-55--8--8--|
   ... .. .. .. .. .. .. .. .    .. .. .. .. .. .. .. .. .
G|------------------------------------------------------------------------|
D|------------------------------------------------------------------------|
A|------------------------------------------------------------------------|
E|------------------------------------------------------------------6--5--|
A|-55-55-55-55-55-55-55-55-55-5---55-55-55-55-55-55-55-55-55--8--8--------|

Solo:
G|------------------------------------------------------------|x2--|
D|------------------------------------------------------------|x2--|
A|------------------------------------------------------------|x2--|
E|-----------------------------------------------------8---5--|x2--|
A|-55555555555555555555555555555555---8888888888888888--------|x2--|
  |--------------32x---------------| |-------16x-------------------|

Outro:
G|-------------------------------------------------------------------|
D|-------------------------------------------------------------------|
A|-------------------------------------------------------------------|
E|-------------------------------------------------------------------|
A|-17\555-55-55-55-55-55-55-55-55--55-55-55-55-55-55-55-55-55--8--8--|
           ... .. .. .. .. .. .. .. .   .. .. .. .. .. .. .. .. .

G|-------------------------------------------------------------------------------|
D|-------------------------------------------------------------------------------|
A|-------------------------------------------------------------------------------|
E|-----------------------------------------------------------------6--5----------|
A|-55-55-55-55-55-55-55-55-55-5--55-55-55-55-55-55-55-55-55--8--8--------5~---5--|

Intro 1x
Verse 1x
Pre-Chorus 1x
Chorus 1x
Verse 1x
Pre-Chorus 1x
Chorus 1x
Bridge 1x
Solo 1x
Pre-Chorus 1x
Chorus 1x
Outro 1x


| .  staccato (short)
| /  slide up
| \  slide down
| h  hammer-on
| p  pull-off
| ~  vibrato
| +  harmonic
| x  Mute note
===============================================================================

            
            
Suggest correction
Creating personal tab
Creating personal tab
You can edit any tab online and save it as your Personal.

You can edit, replace or remove any tab part or add personal notes – all changes will be seen only by you.

Personal tabs can be accessed anytime from any device, even offline.
Learn more »
Give kudos to tab author, rate the tab!
1 2 3 4 5
comments
print report bad tab
3 comments total.
0 reply
Craig-Bass1995 177 Oct 03, 2009 03:04 AM

But Moose Plays A 4-String Bass And ALL BFMV Songs Are In Drop-C Tuning. :/

+1 reply
bassbuzz 112 Oct 03, 2009 03:06 AM

Yes, I know, but this is for people with a 5-string, who don't want to tune down to C.

0 reply
Craig-Bass1995 177 Nov 10, 2009 09:05 AM

You, Sir, Are One Clever Person! :)

guest
You may want to rate the tab now too:
select rating
Wanna post a correction for this tab? Suggest correction