Oops, an error
Loading. Please wait.
We have an official Scream Aim Fire tab made by UG professional guitarists. Check out the tab »
×
12,733 views 12 this week
4 commentsread comments
1 2 3 4 5
x 3
add to favorites
×
Save as Personal and add changes to this tab that will be seen only by you. Learn more ›
×
You can save this tab as Personal to edit and correct it or add notes. All changes will be seen only by you. Learn more »
launch autoscroll
font size
0
reset
how to read this tab
guitar tuner
backing track
0:00
0:00
edit
Autoscroll
slow
fast
+/-
esc
set tempo
stop
Author
Scream Aim Fire (TAB)-form FNDfan69


Ok, this is the title track of the CD, this is 99 percent right. SO READ IT!!!
oh and fndfilms owns!!!

D|---------------------------------------------------|
A|---------------------------------------------------|
F|---------------------------------------------------|
C|-9-----7-9---------------------7-9-10-9-7-9-7------|
G|---------------------------------------------------|
D|---00-------0--0-0-0--0-0--------------------------|
    (p.m)    |--------------|



D|-------------------------------------------------------|
A|-------------------------------------------------------|
F|-------------------------------------------------------|
C|---------9-7-------------------10-9~-------------------|
G|-------------------------------------------------------|
D|---0-0-------0--0-0-0--0-0-----------------------------|
    (p.m)     |---------------|

D|------------------------------------------------------|
A|------------------------------------------------------|
F|------------------------------------------------------|
C|------------------------------------------------------|
G|10---------9--------10---------9---------10-12--------|
D|-8--0-0-0--8--0-0-0--8--0-0-0--8--0-0-0--8--8---------|
      (p.m)    |-----|   |-----|   |-----|


D|------------------------------------------------------|
A|------------------------------------------------------|
F|------------------------------------------------------|
C|----------------7-------------------------------------|
G|-5-------5------5-------------------------------------|
D|-3-------3--------------------------------------------|           


D|---------------------------------------------------|
A|---------------------------------------------------|
F|---------------------------------------------------|
C|-9-----7-9---------------------7-9-10-9-7-9-7------|
G|---------------------------------------------------|
D|---00-------0--0-0-0--0-0--------------------------|
    (p.m)    |--------------|





D|-------------------------------------------------------|
A|-------------------------------------------------------|
F|-------------------------------------------------------|
C|---------9-7-------------------10-9~-------------------|
G|-------------------------------------------------------|
D|---0-0-------0--0-0-0--0-0-----------------------------|
    (p.m)     |--------------|




D|------------------------------------------------------|
A|------------------------------------------------------|
F|------------------------------------------------------|
C|------------------------------------------------------|
G|10---------9--------10---------9---------10-12--------|
D|-8--0-0-0--8--0-0-0--8--0-0-0--8--0-0-0--8--8---------|
      (p.m)    |-----|   |-----|   |-----|

slide your pick across your guitar strings

D|------------------------------------------------------|
A|------------------------------------------------------|
F|------------------------------------------------------|
C|-----------------7------2-----///---------------------|
G|-5-------5-------5------2----///----------------------|
D|-3-------3--------------0---///-----------------------|           

fast, easy

D|-----------------------------------------------------------------------|
A|-----------------------------------------------------------------------|
F|-----------------------------------------------------14-14-14-14-------|          
C|-14-14-14-14---16-16-16-16---17-17-17-17-------------------------------|
G|-----------------------------------------------------------------------|
D|-----------------------------------------------------------------------|


D|-----------------------------------------------------------------------|
A|-----------------------------------------------------------------------|
F|-----------------------------------------------------14-14-14-14-------|
C|-14-14-14-14---16-16-16-16---17-17-17-17-------------------------------|
G|-----------------------------------------------------------------------|
D|-----------------------------------------------------------------------|







D|-------------------------------------|
A|-------------------------------------|
F|-------------------------------------|
C|-12-12-12-12--14 \-------------------|
G|-------------------------------------|
D|-------------------------------------|



D|----------------------------|---------------------------|
A|----------------------------|---------------------------|
F|----------------------------|--------5---------4~-------|
C|-2--------------------------|--2----------5-------------|
G|-2--------------------------|--2------------------------|
D|-0--0-0-0--0-0-0--0---------|--0------------------------|
     | p.m -----------|


D|--------------------------------------------------------|
A|--------------------------------------------------------|
F|------------------------------------------7-------------|
C|-5--------------------5-------------------7---4---------|
G|-5--------------------5-------------------5---2---------|
D|-3-3-3-3--3-3-3-3-3-3-3--3-3-3--3-----------------------|
    |p.m---------------|  |---------|

D|----------------------------|---------------------------|
A|----------------------------|---------------------------|
F|----------------------------|--------5---------4~-------|
C|-2--------------------------|--2----------5-------------|
G|-2--------------------------|--2------------------------|
D|-0--0-0-0--0-0-0--0---------|--0------------------------|
     |p.m -----------|




D|--------------------------------------------------------|
A|--------------------------------------------------------|
F|------------------------------------------7-------------|
C|-5--------------------5-------------------7---4---------|
G|-5--------------------5-------------------5---2---------|
D|-3-3-3-3--3-3-3-3-3-3-3--3-3-3--3-----------------------|
    |p.m---------------|  |---------|




this is kind of like the song "take it out" on me by bullet.
so if you know that song on guitar this is gonna be harder for you cuz
you gonna wanna play it in that rhythm
( so remember scream aim fire rhythm!)



D|--------------------------------------------------------------|
A|--------------------------------------------------------------|
F|---------------------------------------------7----------------|
C|-2-0h2-0h2------0h2-0h2-2-2-0h3p0---------5--7----------------|
G|-2----------------------2-2-------2-------5--5----------------|
D|-0------------0-0-------0-0---------0-0---3-------------------|
               |p.m|                 |---|



D|--------------------------------------------------------------|
A|--------------------------------------------------------------|
F|---------------------------------------------7----------------|
C|-2-0h2-0h2------0h2-0h2-2-2-0h3p0---------5--7----------------|
G|-2----------------------2-2-------2-------5--5----------------|
D|-0------------0-0-------0-0---------0-0---3-------------------|
               |p.m|                 |---|

D|------------------------------------------------------------|
A|------------------------------------------------------------|
F|------------------------------------------------------------|
C|-2-2-2--2-2--2-2--2-2--2--2--2-2--2-2--2-2--5-5-------------|
G|-2-2-2--2-2--2-2--2-2--2--2--2-2--2-2--2-2--5-5-------------|
D|-0-0-0--0-0--0-0--0-0--0--0--0-0--0-0--0-0--3-3-------------|
  |p.m-----------------|   |----------------|


D|--------------------------------------------------------|
A|--------------------------------------------------------|
F|-------------------------------------------5--4---------|
C|-2-2--2-2--2-2-------2-2--2-2--2-2---5--5--5--4---------|
G|-2-2--2-2--2-2--3*---2-2--2-2--2-2---5--5--3--2---------|
D|-0-0--0-0--0-0-------0-0--0-0--0-0---3--3---------------|
  |p.m----------|     |-------------|

easy!!! its fast but very easy

D|--------------15-15-12-12-14-14-12-12-15-15-12-12-17-17--------|
A|-16b-----------------------------------------------------------|
F|-16b--12~------------------------------------------------------|
C|---------------------------------------------------------------|
G|---------------------------------------------------------------|
D|---------------------------------------------------------------|





easy!!! its fast but very easy


D|-12-12-15-15-12-12-14-14-12-12-15-15-12-12-17-17--15b-------15~-|
A|----------------------------------------------------------------|
F|----------------------------------------------------------------|
C|----------------------------------------------------------------|
G|----------------------------------------------------------------|
D|----------------------------------------------------------------|

this part and next line are kind of fast but yeah know...

D|---------15h19p15-------------15h19p15-------------------|
A|-----17--------------17-----17-----------17--------------|
F|-16----------------------16------------------------------|
C|---------------------------------------------------------|
G|---------------------------------------------------------|
D|---------------------------------------------------------|




D|---------14h17p14-------------14h17p14-------------------|
A|-----16-------------16-----16-----------17~--------------|
F|-14----------------------14------------------------------|
C|---------------------------------------------------------|
G|---------------------------------------------------------|
D|---------------------------------------------------------|



D|-19-17-15-17-19-------19-17-15-----------------------|
A|------------------17~-----------------19~-17~--------|
F|-----------------------------------------------------|
C|-----------------------------------------------------|
G|-----------------------------------------------------|
D|-----------------------------------------------------|


D|-19-17-19-15-19-14-19-----------------15~------------|
A|-------------------------17-15-17-19-----------------|
F|-----------------------------------------------------|
C|-----------------------------------------------------|
G|-----------------------------------------------------|
D|-----------------------------------------------------|







below is tapping my friends - pretty fast

D|-T19-T12-h-15---T19-12-h-15------T19-12-h-15—T19--------------------|
A|--------------------------------------------------------------------|
F|--------------------------------------------------------------------|
C|--------------------------------------------------------------------|
G|--------------------------------------------------------------------|
D|--------------------------------------------------------------------|

D|-T20-T12-h-15---T20-12-h-15------T20-12-h-15—T120-------------------|
A|--------------------------------------------------------------------|
F|--------------------------------------------------------------------|
C|--------------------------------------------------------------------|
G|--------------------------------------------------------------------|
D|--------------------------------------------------------------------|

pretty fast

D|-T19-T12-h-15---T19-12-h-15------T19-12-h-15—T19--------------------|
A|--------------------------------------------------------------------|
F|--------------------------------------------------------------------|
C|--------------------------------------------------------------------|
G|--------------------------------------------------------------------|
D|--------------------------------------------------------------------|

pretty fast

D|-T17-T12-h-15---T17-12-h-15------T17-12-h-15—T17--------------------|
A|--------------------------------------------------------------------|
F|--------------------------------------------------------------------|
C|--------------------------------------------------------------------|
G|--------------------------------------------------------------------|
D|--------------------------------------------------------------------|

bloody fast

D|----------------------------------------------------|
A|----------------------------------------------------|
F|---------------------------------------12h14h16-----|
C|---------------------------12h14h16-----------------|
G|--------------12h14h15------------------------------|
D|-12h14h15-------------------------------------------|

bloody fast

D|--------------14h15h17------19~--------22b-------------|
A|-13h15h17----------------------------------------------|
F|-------------------------------------------------------|
C|-------------------------------------------------------|
G|-------------------------------------------------------|
D|-------------------------------------------------------|

then end.
thank you to grim guitar reaper!!!


legend.
(P)- pull off
(H)- hammer on
(T)- tapping
(/)- slide up
(\)- slide down 
(///)- pick slide

thank you- from FNDFAN69


            
            
Suggest correction
Creating personal tab
Creating personal tab
You can edit any tab online and save it as your Personal.

You can edit, replace or remove any tab part or add personal notes – all changes will be seen only by you.

Personal tabs can be accessed anytime from any device, even offline.
Learn more »
Give kudos to tab author, rate the tab!
1 2 3 4 5
comments
print report bad tab
4 comments total. Showing first comments.
0 reply
Ghost Stalker 12 Nov 26, 2008 12:20 PM

Musically, I'd say its very, very accurate, but certain positional things I disagree with

0 reply
NoFear5454 36 Feb 19, 2009 12:28 PM

Grabbed from Youtube I believe? I was using this same video.
Go watch the cover by ChisBFMV, simply amazing.
except for the pre chorus I play:
e|--------------------------------------------------------------|
B|--------------------------------------------------------------|
G|--------------------------------------------------------------|
D|-2----------------------0-0--------------7--------------------|
A|-2-0h3-0h3------0h3-0h3-0-0-0h3p0-----5--5-(let ring)---------|
D|-0----------0-0---------0-0-----------3-----------------------|
|p.m| |---|
but I do play this in drop D, so it's going to be different

0 reply
NoFear5454 36 Feb 19, 2009 12:29 PM

Wow the palm mutes got messed up when I posted, they should be where the strings are played open.

guest
You may want to rate the tab now too:
select rating
Wanna post a correction for this tab? Suggest correction