Oops, an error
Loading. Please wait.
We have an official Scream Aim Fire tab made by UG professional guitarists. Check out the tab »
×
5,502 views 6 this week
6 commentsread comments
1 2 3 4 5
x 3
add to favorites
×
Save as Personal and add changes to this tab that will be seen only by you. Learn more ›
×
You can save this tab as Personal to edit and correct it or add notes. All changes will be seen only by you. Learn more »
launch autoscroll
font size
0
reset
how to read this tab
guitar tuner
backing track
0:00
0:00
edit
Autoscroll
slow
fast
+/-
esc
set tempo
stop
Scream Aim Fire
Bullet For My Valentine
Scream Aim Fire
Drop D

a lot of people say this song is in d standard,
but it can be played in drop d as well. so, anyone want it in 
D standard, see another tab. oh, one more thing. i tabbed the harmony
as guitar 1, so if you want it the other way around, dont harass me,
just flip it. and another note, the harmony  can be played on the A string,
so dont bust my balls over it.

+UPDATED 2/28/2009+
I updated the solo, choruses, and all verses
*Thank you dandyhandy17 for pointing out my 
mistakes*

+UPDATED 3/22/2009+
i updated the chorus and all verses. the harmony part
 sounded wrong, so i changed the notes, and this tab is
now 100% correct!


INTRO
Guitar 1
e)------------------------------------------------------------)
B)------------------------------------------------------------)
G)------------------------------------------------------------)
D)--7-----5-7---------5-7-8-7-5h7-7-----7-5---------8---7~----)
A)------------------------------------------------------------)
D)----000-----000-000---------------000-----000-000---0-------)
      ...     ... ...               ...     ... ...   .

Guitar 2 (same time as guitar 1)
e)------------------------------------------------------------)
B)------------------------------------------------------------)
G)------------------------------------------------------------)
D)------------------------------------------------------------)
A)--8-----7-8---------7-8-10-8-7h8-7-----8-7---------10---8~--)
D)----000-----000-000----------------000-----000-000----0-----)
      ...     ... ...                ...     ... ...    .

Guitar 1
e)--------------------------------------)
B)--------------------------------------)
G)--7tp-9tp-10tp-12tp--7tp-9tp-10tp-5tp-)
D)--------------------------------------)
A)--------------------------------------)
D)--------------------------------------)

Guitar 2
e)--------------------------------------)
B)--7tp-9tp-10tp-12tp--7tp-9tp-10tp-5tp-)
G)--------------------------------------)
D)--------------------------------------)
A)--------------------------------------)
D)--------------------------------------)


Guitar 1
e)------------------------------------------------------------)
B)------------------------------------------------------------)
G)------------------------------------------------------------)
D)--7-----5-7---------5-7-8-7-5h7-7-----7-5---------8---7~----)
A)------------------------------------------------------------)
D)----000-----000-000---------------000-----000-000---0-------)
      ...     ... ...               ...     ... ...   .


Guitar 2 (same time as guitar 1)
e)-----------------------------------------------------------)
B)-----------------------------------------------------------)
G)-----------------------------------------------------------)
D)-----------------------------------------------------------)
A)--8-----7-8---------7-8-10-8-7h8-7-----8-7---------8---7~--)
D)----000-----000-000----------------000-----000-000---0-----)
      ...     ... ...                ...     ... ...   .

Guitar 1
e)--------------------------------------)
B)--------------------------------------)
G)--7tp-9tp-10tp-12tp--7tp-9tp-10tp-5tp-)
D)--------------------------------------)
A)--------------------------------------)
D)--------------------------------------)

Guitar 2
e)--------------------------------------)
B)--7tp-9tp-10tp-12tp--7tp-9tp-10tp-5tp-)
G)--------------------------------------)
D)--------------------------------------)
A)--------------------------------------)
D)--------------------------------------)

Both guitars
e)---------------------------)
B)---------------------------)
G)---------------------------)
D)-0-0---------/////////////-)
A)-0-0--------//PICKSLIDE//--)
D)-0-0-------/////////////---)

VERSE 1
Guitar 1
e)--------------------------------------------------------)
B)--------------------------------------------------------)
G)--------------------------------------------------------)
D)--0-----------0------------0------------0------8----7~--)
A)--0-0-0-0-000-0-0-0-000-00-0-0-0-000-00-0-0-0-----------)
D)--0-0-0-0-000-0-0-0-000-00-0-0-0-000-00-0-0-0-----0-----)
      . . . ... . ... ...   . ... ...  ..     .


Guitar 2
e)--------------------------------------------------------)
B)--------------------------------------------------------)
G)--------------------------------------------------------)
D)--0-----------0------------0------------0---------------)
A)--0-0-0-0-000-0-0-0-000-00-0-0-0-000-00-0-0-0--10---8~--)
D)--0-0-0-0-000-0-0-0-000-00-0-0-0-000-00-0-0-0-----0-----)
      . . . ... . ... ...   . ... ...  ..     .

Both guitars
e)------------------------------------)
B)------------------------------------)
G)---------------------------------2--)
D)--3-------------3-------------5--2--)
A)--3-3-333-333-3-3-3-333-333-3-5--0--)
D)--3-3-333-333-3-3-3-333-333-3-3-----)
      . ... ... .   . ... ... . 

Guitar 1
e)--------------------------------------------------------)
B)--------------------------------------------------------)
G)--------------------------------------------------------)
D)--0-----------0------------0------------0------8----7~--)
A)--0-0-0-0-000-0-0-0-000-00-0-0-0-000-00-0-0-0-----------)
D)--0-0-0-0-000-0-0-0-000-00-0-0-0-000-00-0-0-0-----0-----)
      . . . ... . ... ...   . ... ...  ..     .


Guitar 2
e)--------------------------------------------------------)
B)--------------------------------------------------------)
G)--------------------------------------------------------)
D)--0-----------0------------0------------0---------------)
A)--0-0-0-0-000-0-0-0-000-00-0-0-0-000-00-0-0-0--10---8~--)
D)--0-0-0-0-000-0-0-0-000-00-0-0-0-000-00-0-0-0-----0-----)
      . . . ... . ... ...   . ... ...  ..     .

Both guitars
e)------------------------------------)
B)------------------------------------)
G)---------------------------------2--)
D)--3-------------3-------------5--2--)
A)--3-3-333-333-3-3-3-333-333-3-5--0--)
D)--3-3-333-333-3-3-3-333-333-3-3-----)
      . ... ... .   . ... ... . 

PRE-CHORUS
Guitar 1
e)-------------------------------------------------)
B)-------------------------------------------------)
G)----------------------------------------------5--)
D)--0-00---------00----------0-00---------00-3--5--)
A)--0-00---------00----------0-00---------00-3--3--)
D)--0-00---------00----------0-00---------00-3-----)\
                                                     |
                                                     |2x
Guitar 2                                             |
e)-------------------------------------------------)/
B)-------------------------------------------------)
G)----------------------------------------------5--)
D)--0-00---------00----------0-00---------00-3--5--)
A)--0-00-3h5-3h5-00--3h5-3h5-0-00-3h6p3p0-00-3--3--)
D)--0-00---------00----------0-00---------00-3-----)

Guitar 1
e)-------------------------------------------------)
B)-------------------------------------------------)
G)----------------------------------------------5--)
D)--0-00---------00----------0-00---------00-3--5--)
A)--0-00-3h5-3h5-00--3h5-3h5-0-00-3h6p3p0-00-3--3--)
D)--0-00---------00----------0-00---------00-3-----)\
                                                    |
                                                    |2x
Guitar 2                                            |
e)-------------------------------------------------)/
B)-------------------------------------------------)
G)----------------------------------------------5--)
D)--0-00---------00----------0-00---------00-3--5--)
A)--0-00-3h5-3h5-00--3h5-3h5-0-00-3h6p3p0-00-3--3--)
D)--0-00---------00----------0-00---------00-3-----)

CHORUS
Guitar 1
e)------------------------------------------------------------)
B)------------------------------------------------------------)
G)------------------------------------------------------------)
D)--7-----5-7---------5-7-8-7-5h7-7-----7-5---------8---7~----)
A)------------------------------------------------------------)
D)----000-----000-000---------------000-----000-000---0-------)
      ...     ... ...               ...     ... ...   .


Guitar 2 (same time as guitar 1)
e)-----------------------------------------------------------)
B)-----------------------------------------------------------)
G)-----------------------------------------------------------)
D)-----------------------------------------------------------)
A)--8-----7-8---------7-8-10-8-7h8-7-----8-7---------8---7~--)
D)----000-----000-000----------------000-----000-000---0-----)
      ...     ... ...                ...     ... ...   .

Both guitars
e)------------------------------------------------------------------)
B)------------------------------------------------------------------)
G)-----------------------------------------55--(REPEAT-CORUS-ONCE)--)
D)--3--------3--------3--------3-----3-3-3-55----/////////////------)
A)--1-11111111-11111111-11111111-11111-3-3-33---//PICKSLIDE//-------)
D)-------------------------------------3-3-----/////////////--------)
                                         (second time, do pickslide)
VERSE 2
Guitar 1
e)--------------------------------------------------------)
B)--------------------------------------------------------)
G)--------------------------------------------------------)
D)--0-----------0------------0------------0------8----7~--)
A)--0-0-0-0-000-0-0-0-000-00-0-0-0-000-00-0-0-0-----------)
D)--0-0-0-0-000-0-0-0-000-00-0-0-0-000-00-0-0-0-----0-----)
      . . . ... . ... ...   . ... ...  ..     .


Guitar 2
e)--------------------------------------------------------)
B)--------------------------------------------------------)
G)--------------------------------------------------------)
D)--0-----------0------------0------------0---------------)
A)--0-0-0-0-000-0-0-0-000-00-0-0-0-000-00-0-0-0--10---8~--)
D)--0-0-0-0-000-0-0-0-000-00-0-0-0-000-00-0-0-0-----0-----)
      . . . ... . ... ...   . ... ...  ..     .

Both guitars
e)------------------------------------)
B)------------------------------------)
G)---------------------------------2--)
D)--3-------------3-------------5--2--)
A)--3-3-333-333-3-3-3-333-333-3-5--0--)
D)--3-3-333-333-3-3-3-333-333-3-3-----)
      . ... ... .   . ... ... . 
Guitar 1
e)--------------------------------------------------------)
B)--------------------------------------------------------)
G)--------------------------------------------------------)
D)--0-----------0------------0------------0------8----7~--)
A)--0-0-0-0-000-0-0-0-000-00-0-0-0-000-00-0-0-0-----------)
D)--0-0-0-0-000-0-0-0-000-00-0-0-0-000-00-0-0-0-----0-----)
      . . . ... . ... ...   . ... ...  ..     .


Guitar 2
e)--------------------------------------------------------)
B)--------------------------------------------------------)
G)--------------------------------------------------------)
D)--0-----------0------------0------------0---------------)
A)--0-0-0-0-000-0-0-0-000-00-0-0-0-000-00-0-0-0--10---8~--)
D)--0-0-0-0-000-0-0-0-000-00-0-0-0-000-00-0-0-0-----0-----)
      . . . ... . ... ...   . ... ...  ..     .

Both guitars
e)------------------------------------)
B)------------------------------------)
G)---------------------------------2--)
D)--3-------------3-------------5--2--)
A)--3-3-333-333-3-3-3-333-333-3-5--0--)
D)--3-3-333-333-3-3-3-333-333-3-3-----)
      . ... ... .   . ... ... . 

PRE-CHORUS
Guitar 1
e)-------------------------------------------------)
B)-------------------------------------------------)
G)----------------------------------------------5--)
D)--0-00---------00----------0-00---------00-3--5--)
A)--0-00---------00----------0-00---------00-3--3--)
D)--0-00---------00----------0-00---------00-3-----)\
                                                     |
                                                     |2x
Guitar 2                                             |
e)-------------------------------------------------)/
B)-------------------------------------------------)
G)----------------------------------------------5--)
D)--0-00---------00----------0-00---------00-3--5--)
A)--0-00-3h5-3h5-00--3h5-3h5-0-00-3h6p3p0-00-3--3--)
D)--0-00---------00----------0-00---------00-3-----)

Guitar 1
e)-------------------------------------------------)
B)-------------------------------------------------)
G)----------------------------------------------5--)
D)--0-00---------00----------0-00---------00-3--5--)
A)--0-00-3h5-3h5-00--3h5-3h5-0-00-3h6p3p0-00-3--3--)
D)--0-00---------00----------0-00---------00-3-----)\
                                                    |
                                                    |2x
Guitar 2                                            |
e)-------------------------------------------------)/
B)-------------------------------------------------)
G)----------------------------------------------5--)
D)--0-00---------00----------0-00---------00-3--5--)
A)--0-00-3h5-3h5-00--3h5-3h5-0-00-3h6p3p0-00-3--3--)
D)--0-00---------00----------0-00---------00-3-----)

CHORUS
Guitar 1
e)------------------------------------------------------------)
B)------------------------------------------------------------)
G)------------------------------------------------------------)
D)--7-----5-7---------5-7-8-7-5h7-7-----7-5---------8---7~----)
A)------------------------------------------------------------)
D)----000-----000-000---------------000-----000-000---0-------)
      ...     ... ...               ...     ... ...   .


Guitar 2 (same time as guitar 1)
e)-----------------------------------------------------------)
B)-----------------------------------------------------------)
G)-----------------------------------------------------------)
D)-----------------------------------------------------------)
A)--8-----7-8---------7-8-10-8-7h8-7-----8-7---------8---7~--)
D)----000-----000-000----------------000-----000-000---0-----)
      ...     ... ...                ...     ... ...   .

Both guitars
e)------------------------------------------------------------------)
B)------------------------------------------------------------------)
G)-----------------------------------------55--(REPEAT-CORUS-ONCE)--)
D)--3--------3--------3--------3-----3-3-3-55----/////////////------)
A)--1-11111111-11111111-11111111-11111-3-3-33---//PICKSLIDE//-------)
D)-------------------------------------3-3-----/////////////--------)
                                          (second time, do pickslide)

BREAKDOWN
Both guitars                       (hold last note)
e)-------------------------------------------------)
B)-------------------------------------------------)
G)-------------------------------------------------)
D)-------------------------------------------------)
A)--0-0-0--0-0--0-0--0-0--0-0--0-0--0-0--0-0--0-0--)
D)--0-0-0--0-0--0-0--0-0--0-0--0-0--0-0--0-0--0-0--)
    . . .  . .  . .  . .  . .  . .  . .  . .  . 

Both guitars                       
e)--------------------------------------------------------)
B)--------------------------------------------------------)
G)--------------------------------------------------------)
D)--------------------------------------------------------)
A)--0-0--0-0--0-0--0-0--0-0--0-0--0-0--0-0--0-0--3hb-3hb--)
D)--0-0--0-0--0-0--0-0--0-0--0-0--0-0--0-0--0-0--3hb-3hb--)
    . .  . .  . .  . .  . .  . .  . .  . .  . 

Guitar 1 (let all notes ring when played)
e)------------------------------------------------)
B)------------------------------------------------)
G)------------------------------------------------)
D)------------------------------------------------)
A)--0-0--0-0--0-0--0-0--0-0--0-0--0-0--0-0--0-----)
D)--0-0--0-0--0-0--0-0--0-0--0-0--0-0--0-0--0-3*--)
    . .  . .  . .  . .  . .  . .  . .  . .  . 

Guitar 2
e)-----------------------------------------------)
B)-----------------------------------------------)
G)-----------------------------------------------)
D)-----------------------------------------------)
A)--0-0--0-0--0-0--0-0--0-0--0-0--0-0--0-0--0-0--)
D)--0-0--0-0--0-0--0-0--0-0--0-0--0-0--0-0--0-0--)
    . .  . .  . .  . .  . .  . .  . .  . .  . 

Both guitars                       
e)------------------------------------------------------------)
B)------------------------------------------------------------)
G)-------------------------------------------------------3-2--)
D)-------------------------------------------------------3-2--)
A)--0-0--0-0--0-0--0-0--0-0--0-0--0-0--0-0--0-0--3hb-3hb-1-0--)
D)--0-0--0-0--0-0--0-0--0-0--0-0--0-0--0-0--0-0--3hb-3hb------)
    . .  . .  . .  . .  . .  . .  . .  . .  . 

SOLO
Guitar 1 odviously                 
(Guitar to plays the verse though the solo)
                                    [2x]
e)------------[13-13-10-10-12-12-10-10-13-13-10-10-15-15-10-10]-13h15-13~--)
B)--13br-------------------------------------------------------------------)
G)--12br-10~---------------------------------------------------------------)
D)-------------------------------------------------------------------------)
A)-------------------------------------------------------------------------)
D)-------------------------------------------------------------------------)

SWEEPING
e)--------13h17p13------13h17p13---------12h15p12------12h15p12------)
B)--15--15--------15--15--------15-----14--------14--14--------14----)
G)----14------------14------------14-12------------12------------12--)
D)-------------------------------------------------------------------)
A)-------------------------------------------------------------------)
D)-------------------------------------------------------------------)

e)-----17-15-13-15-17------17-15-13-12------17-15-17-13-17-12-17-----------------)
B)-15------------------15---------------15-----------------------15-13-15-17-18--)
G)-------------------------------------------------------------------------------)
D)-------------------------------------------------------------------------------)
A)-------------------------------------------------------------------------------)
D)-------------------------------------------------------------------------------)

PICK TAPPING  [wah pedal needed]
e)--10-13-17-10-13-17-10-13-17-10-13-17-10-13-17-10-13-17-10-13-17--)
B)------------------------------------------------------------------)
G)------------------------------------------------------------------)
D)------------------------------------------------------------------)
A)------------------------------------------------------------------)
D)------------------------------------------------------------------)
             (keep repeating, and get faster as you go)

e)------------------------------------------12-14-15-17~---22b--)
B)----------------------------------11-13-15---------------21b--)
G)--------------------------10-12-14----------------------------)
D)------------------10-12-14------------------------------------)
A)----------10-12-14--------------------------------------------)
D)--12-14-15----------------------------------------------------)

VERSE 3
Guitar 1                                          
e)------------------------)
B)------------------------)
G)---------------------5--)
D)--0-00---------00-3--5--)
A)--0-00-3h6p3p0-00-3--3--)
D)--0-00---------00-3-----)

Guitar 1
e)-------------------------------------------------)
B)-------------------------------------------------)
G)----------------------------------------------5--)
D)--0-00---------00----------0-00---------00-3--5--)
A)--0-00-3h5-3h5-00--3h5-3h5-0-00-3h6p3p0-00-3--3--)
D)--0-00---------00----------0-00---------00-3-----)\
                                                    |
                                                    |2x
Guitar 2                                            |
e)-------------------------------------------------)/
B)-------------------------------------------------)
G)----------------------------------------------5--)
D)--0-00---------00----------0-00---------00-3--5--)
A)--0-00-3h5-3h5-00--3h5-3h5-0-00-3h6p3p0-00-3--3--)
D)--0-00---------00----------0-00---------00-3-----)

CHORUS
Guitar 1
e)------------------------------------------------------------)
B)------------------------------------------------------------)
G)------------------------------------------------------------)
D)--7-----5-7---------5-7-8-7-5h7-7-----7-5---------8---7~----)
A)------------------------------------------------------------)
D)----000-----000-000---------------000-----000-000---0-------)
      ...     ... ...               ...     ... ...   .

Guitar 2 (same time as guitar 1)
e)-----------------------------------------------------------)
B)-----------------------------------------------------------)
G)-----------------------------------------------------------)
D)-----------------------------------------------------------)
A)--8-----7-8---------7-8-10-8-7h8-7-----8-7---------8---7~--)
D)----000-----000-000----------------000-----000-000---0-----)
      ...     ... ...                ...     ... ...   .

Both guitars
e)------------------------------------------------------------------)
B)------------------------------------------------------------------)
G)-----------------------------------------55--(REPEAT-CORUS-ONCE)--)
D)--3--------3--------3--------3-----3-3-3-55----/////////////------)
A)--1-11111111-11111111-11111111-11111-3-3-33---//PICKSLIDE//-------)
D)-------------------------------------3-3-----/////////////--------)
                                          (second time, do pickslide)

BREAKDOWN
Both guitars                       (hold last note)
e)-------------------------------------------------)
B)-------------------------------------------------)
G)-------------------------------------------------)
D)-------------------------------------------------)
A)--0-0-0--0-0--0-0--0-0--0-0--0-0--0-0--0-0--0-0--)
D)--0-0-0--0-0--0-0--0-0--0-0--0-0--0-0--0-0--0-0--)
    . . .  . .  . .  . .  . .  . .  . .  . .  . 

Both guitars                       
e)----------------------------------------------------------)
B)----------------------------------------------------------)
G)----------------------------------------------------------)
D)----------------------------------------------------------)
A)--0-0-0--0-0--0-0--0-0--0-0--0-0--0-0--0-0--0-0--3hb-3hb--)
D)--0-0-0--0-0--0-0--0-0--0-0--0-0--0-0--0-0--0-0--3hb-3hb--)
    . . .  . .  . .  . .  . .  . .  . .  . .  . 

Guitar 1 (let all notes ring when played)
e)------------------------------------------------)
B)------------------------------------------------)
G)------------------------------------------------)
D)------------------------------------------------)
A)--0-0--0-0--0-0--0-0--0-0--0-0--0-0--0-0--0-----)
D)--0-0--0-0--0-0--0-0--0-0--0-0--0-0--0-0--0-3*--)
    . .  . .  . .  . .  . .  . .  . .  . .  . 

Guitar 2
e)-----------------------------------------------)
B)-----------------------------------------------)
G)-----------------------------------------------)
D)-----------------------------------------------)
A)--0-0--0-0--0-0--0-0--0-0--0-0--0-0--0-0--0-0--)
D)--0-0--0-0--0-0--0-0--0-0--0-0--0-0--0-0--0-0--)
    . .  . .  . .  . .  . .  . .  . .  . .  . 

Both guitars                     
e)------------------------------------------------------------)
B)------------------------------------------------------------)
G)-------------------------------------------------------3-2--)
D)-------------------------------------------------------3-2--)
A)--0-0--0-0--0-0--0-0--0-0--0-0--0-0--0-0--0-0--3hb-3hb-1-0--)
D)--0-0--0-0--0-0--0-0--0-0--0-0--0-0--0-0--0-0--3hb-3hb------)
    . .  . .  . .  . .  . .  . .  . .  . .  . 

OUTRO
BOTH GUITARS
e)---------------------------------------------------------------------)
B)---------------------------------------------------------------------)
G)---------------------------------------------------------------------)
D)------------------------------------------------------------------0--)
A)------------------------------------------------------------------0--)
D)--6-5-3-0-5-3-2-0-6-5-3-0-5-3-2-0-6-5-3-0-5-3-2-0-6-5-3-0-5-3-2-0-0--)
                           (SUPER FAST!!)

==================================================================================

. = PALM MUTE
~ = VABRADO
H = HAMMER ON
P = PULL OFF
B = BEND
/ = SLIDE DOWN
TP = TREMOLO PICK
* = PINCH HARMONIC




Well, this is it! please comment or e-mail me! this is a
great song. hope you enjoy! and to those who are just gunna 
tell me how wrong it is becuase its not in D standard, dont
even both to comment.

TABBED BY:austinrocker110

            
            
Suggest correction
Creating personal tab
Creating personal tab
You can edit any tab online and save it as your Personal.

You can edit, replace or remove any tab part or add personal notes – all changes will be seen only by you.

Personal tabs can be accessed anytime from any device, even offline.
Learn more »
Give kudos to tab author, rate the tab!
1 2 3 4 5
comments
print report bad tab
6 comments total. Showing first comments.
+1 reply
dandyhandy17 2,125 Feb 21, 2009 03:34 AM

it can be played in drop D, but you STILL tabbed it wrong. One of the guitars for the intro is wrong, there should be a high harmony on the 4 string. The Chrous is also incorrect, and the tapping is solo is wrong too

-1 reply
dandyhandy17 2,125 Feb 21, 2009 03:34 AM

it can be played in drop D, but you STILL tabbed it wrong. One of the guitars for the intro is wrong, there should be a high harmony on the 4 string. The Chrous is also incorrect, and the tapping is solo is wrong too

+1 reply
randomhero93 90 Feb 21, 2009 04:40 AM

I ran the song through my head while reading this tab, there are a few mistakes, but you did pretty well with this. thank you for a drop D tab for a drop D player with an FR. i did NOT want to hassle with the tuning JUST for this song.

guest
You may want to rate the tab now too:
select rating
Wanna post a correction for this tab? Suggest correction