Oops, an error
Loading. Please wait.
We have an official Scream Aim Fire tab made by UG professional guitarists. Check out the tab »
×
154,075 views 75 this week
22 commentsread comments
1 2 3 4 5
x 59
add to favorites
×
Save as Personal and add changes to this tab that will be seen only by you. Learn more ›
×
You can save this tab as Personal to edit and correct it or add notes. All changes will be seen only by you. Learn more »
launch autoscroll
font size
0
reset
how to read this tab
guitar tuner
backing track
0:00
0:00
edit
Autoscroll
slow
fast
+/-
esc
set tempo
stop
Scream Aim Fire
Bullet For My Valentine
Scream Aim Fire
D Tuning- DGCFAD

-Intro-
Matt
D||-------------------------------------------------------------------------------|
A||o------------------------------------------------------------------------------|
F||-------------------------------------------------------------------------------|
C||-------------------------------------------------------------------------------|
G||o-10-----9-10--------------9-10-12-10-9-10-9-------10-9--------------12p9-10~~-|
D||-----0-0------0-0-0--0-0-0-------------------0-0-0------0-0-0--0-0-0-----------|
        - -      - - -  - - -                   - - -      - - -  - - -
Padge
D||-------------------------------------------------------------------------------|
A||o------------------------------------------------------------------------------|
F||-------------------------------------------------------------------------------|
G||--9-----7--9---------------7--9--10--9-7-9-7-------9--7--------------10p7--9~~-|
C||o------------------------------------------------------------------------------|
D||----0-0-------0-0-0--0-0-0-------------------0-0-0------0-0-0--0-0-0-----------|
       - -       - - -  - - -                   - - -      - - -  - - -

Matt
D|-------------------------------------------------------------------||
A|------------------------------------------------------------------o||
F|-------------------------------------------------------------------||
C|-------------------------------------------------------------7~~~~-||
G|-10---------9--------10--------10---------9-----9-10---5~~~~-5~~~~o||
D|--8-8-8-8-8-8-8-8-8-8-8-8-8-8-8-8-8-8-8-8-8-8-8-8-8----3~~~~-------||
      - - - -   - - - -   - - - -   - - - -   - -
Padge
D|-------------------------------------------------------------------------------||
A|------------------------------------------------------------------------------o||
F|-9999-11-11-11-11-12-12-12-12-14-14-14-14-9999-11-11-11-11-12-12-12-12-7777-9\-||
C|-------------------------------------------------------------------------------||
G|------------------------------------------------------------------------------o||
D|-------------------------------------------------------------------------------||
Gtr 3
D|-------------------------------------------------------------------------------|
A|-8888-10-10-10-10-12-12-12-12-13-13-13-13-8888-10-10-10-10-12-12-12-12-7777-8\-|
F|-------------------------------------------------------------------------------|
C|-------------------------------------------------------------------------------|
G|-------------------------------------------------------------------------------|
D|-------------------------------------------------------------------------------|

Matt & Padge
D|--------------------------------------------------|
A|--------------------------------------------------|
F|--------------------------------------------------|
C|-2~~~~~~~~~~~~~~~~~~~~~~-pickslide----------------|
G|-2~~~~~~~~~~~~~~~~~~~~~~-x\\\\\\\\\\\\\\\\\\\\\\\-|
D|-0~~~~~~~~~~~~~~~~~~~~~~-x\\\\\\\\\\\\\\\\\\\\\\\-|

-Verse-
D||----------------------------------------------------------------|
A||o---------------------------------------------------------------|
F||----------------------------------------------------------------|
C||----------------------------------------------------------------|
G||o-2-----------------2--------------------2--------------------2-|
D||--0-0-0-0--0-0-0--0-0-0--0-0-0--0-0-0--0-0-0--0-0-0--0-0-0--0-0-|
       - - -  - - -  -   -  - - -  - - -  -   -  - - -  - - -  -
-"Kill your enemies, my brothers dead around me...
-"Smoke is blinding, hearts are pounding, chaos soon ignites...

Padge
D|--------|
A|--------|
F|-5p0-4~-|
C|--------|
G|--------|
D|--------|
Matt
D|--------|
A|--------|
F|--------|
C|-7p0-5~-|
G|--------|
D|--------|

Matt & Padge
D|------------------------------------------------------||
A|-----------------------------------------------------o||
F|------------------------------------------------------||
C|-----------------------------------------7~~~~-4~~~~--||
G|-5--------------------5------------------5~~~~-2~~~~-o||
D|-3-3--3-3-3--3-3-3--3-3-3--3-3-3--3-3-3---------------||
     -  - - -  - - -  -   -  - - -  - - -
...Wounds are hurting, death is creeping for me"
...The call is made, its one for all, will I meet my maker?"

-Pre Chorus-
Padge
D||----------------------------------------------------||
A||o--------------------------------------------------o||
F||----------------------------------------------------||
C||----------------------------------------------7~~~--||
G||o-2--5h7-5h7-----5h7-5h7--2--2--5h8p5-----5~~-5~~~-o||
D||--0----------0-0----------0--0--------6-5-3~~-------||
Matt            - -                      - -
D||----------------------------------------------------||
A||o--------------------------------------------------o||
F||----------------------------------------------------||
C||--2-----------------------2--2----------------7~~~--||
G||o-2-----------------------2--2------------5~~-5~~~-o||
D||--0-----------------------0--0------------3~~-------||
"(OVER THE TOP! OVER THE TOP!) Right now its killing time"

Matt & Padge
D||----------------------------------------------------||
A||o--------------------------------------------------o||
F||----------------------------------------------------||
C||----------------------------------------------7~~~--||
G||o-2--5h7-5h7-----5h7-5h7--2--2--5h8p5-----5~~-5~~~-o||
D||--0----------0-0----------0--0--------6-5-3~~-------||
                - -                      - -
"(OVER THE TOP! OVER THE TOP!) The only way out is to die!"

-Chorus-
Matt
D||-------------------------------------------------------------------------------|
A||o------------------------------------------------------------------------------|
F||-------------------------------------------------------------------------------|
C||-------------------------------------------------------------------------------|
G||o-10-----9-10--------------9-10-12-10-9-10-9-------10-9--------------12p9-10~~-|
D||-----0-0------0-0-0--0-0-0-------------------0-0-0------0-0-0--0-0-0-----------|
        - -      - - -  - - -                   - - -      - - -  - - -
Padge
D||-------------------------------------------------------------------------------|
A||o------------------------------------------------------------------------------|
F||-------------------------------------------------------------------------------|
G||--9-----7--9---------------7--9--10--9-7-9-7-------9--7--------------10p7--9~~-|
C||o------------------------------------------------------------------------------|
D||----0-0-------0-0-0--0-0-0-------------------0-0-0------0-0-0--0-0-0-----------|
       - -       - - -  - - -                   - - -      - - -  - - -
"God has spoken through his conscience, as I...

Matt & Padge
D|-------------------------------------------------------------------||
A|------------------------------------------------------------------o||
F|-------------------------------------------------------------------||
C|-------------------------------------------------------------7~~~~-||
G|-10---------9--------10--------10---------9-----9-10---5~~~~-5~~~~o||
D|--8-8-8-8-8-8-8-8-8-8-8-8-8-8-8-8-8-8-8-8-8-8-8-8-8----3~~~~-------||
      - - - -   - - - -   - - - -   - - - -   - -
...Scream, Aim and Fire! The death toll grows higher"


D|--------------------------------------------------|
A|--------------------------------------------------|
F|--------------------------------------------------|
C|-2~~~~~~~~~~~~~~~~~~~~~~-pickslide----------------|
G|-2~~~~~~~~~~~~~~~~~~~~~~-x\\\\\\\\\\\\\\\\\\\\\\\-|
D|-0~~~~~~~~~~~~~~~~~~~~~~-x\\\\\\\\\\\\\\\\\\\\\\\-|
                      "...CHAAAARRGE!!!"

-Verse-
D||----------------------------------------------------------------|
A||o---------------------------------------------------------------|
F||----------------------------------------------------------------|
C||----------------------------------------------------------------|
G||o-2-----------------2--------------------2--------------------2-|
D||--0-0-0-0--0-0-0--0-0-0--0-0-0--0-0-0--0-0-0--0-0-0--0-0-0--0-0-|
       - - -  - - -  -   -  - - -  - - -  -   -  - - -  - - -  -
-"Fuck these battlefields, the bullets tear around me...
-"Limbs are flying, men are crying, such a hurtful sight...

Padge
D|--------|
A|--------|
F|-5p0-4~-|
C|--------|
G|--------|
D|--------|
Matt
D|--------|
A|--------|
F|--------|
C|-7p0-5~-|
G|--------|
D|--------|

Matt & Padge
D|------------------------------------------------------||
A|-----------------------------------------------------o||
F|------------------------------------------------------||
C|-----------------------------------------7~~~~-4~~~~--||
G|-5--------------------5------------------5~~~~-2~~~~-o||
D|-3-3--3-3-3--3-3-3--3-3-3--3-3-3--3-3-3---------------||
     -  - - -  - - -  -   -  - - -  - - -
...Bodies falling, voices calling for me"
...The call is made one for all, take no prisoners!"

-Pre Chorus-
Padge
D||----------------------------------------------------||
A||o--------------------------------------------------o||
F||----------------------------------------------------||
C||----------------------------------------------7~~~--||
G||o-2--5h7-5h7-----5h7-5h7--2--2--5h8p5-----5~~-5~~~-o||
D||--0----------0-0----------0--0--------6-5-3~~-------||
Matt            - -                      - -
D||----------------------------------------------------||
A||o--------------------------------------------------o||
F||----------------------------------------------------||
C||--2-----------------------2--2----------------7~~~--||
G||o-2-----------------------2--2------------5~~-5~~~-o||
D||--0-----------------------0--0------------3~~-------||
"(OVER THE TOP! OVER THE TOP!) Right now its killing time"

Matt & Padge
D||----------------------------------------------------||
A||o--------------------------------------------------o||
F||----------------------------------------------------||
C||----------------------------------------------7~~~--||
G||o-2--5h7-5h7-----5h7-5h7--2--2--5h8p5-----5~~-5~~~-o||
D||--0----------0-0----------0--0--------6-5-3~~-------||
                - -                      - -
"(OVER THE TOP! OVER THE TOP!) The only way out is to die!"

-Chorus-
Matt
D||-------------------------------------------------------------------------------|
A||o------------------------------------------------------------------------------|
F||-------------------------------------------------------------------------------|
C||-------------------------------------------------------------------------------|
G||o-10-----9-10--------------9-10-12-10-9-10-9-------10-9--------------12p9-10~~-|
D||-----0-0------0-0-0--0-0-0-------------------0-0-0------0-0-0--0-0-0-----------|
        - -      - - -  - - -                   - - -      - - -  - - -
Padge
D||-------------------------------------------------------------------------------|
A||o------------------------------------------------------------------------------|
F||-------------------------------------------------------------------------------|
G||--9-----7--9---------------7--9--10--9-7-9-7-------9--7--------------10p7--9~~-|
C||o------------------------------------------------------------------------------|
D||----0-0-------0-0-0--0-0-0-------------------0-0-0------0-0-0--0-0-0-----------|
       - -       - - -  - - -                   - - -      - - -  - - -
"God has spoken through his conscience, as I...

Matt & Padge
D|-------------------------------------------------------------------||
A|------------------------------------------------------------------o||
F|-------------------------------------------------------------------||
C|-------------------------------------------------------------7~~~~-||
G|-10---------9--------10--------10---------9-----9-10---5~~~~-5~~~~o||
D|--8-8-8-8-8-8-8-8-8-8-8-8-8-8-8-8-8-8-8-8-8-8-8-8-8----3~~~~-------||
      - - - -   - - - -   - - - -   - - - -   - -
...Scream, Aim and Fire! The death toll grows higher"


D|--------------------------------------------------|
A|--------------------------------------------------|
F|--------------------------------------------------|
C|-2~~~~~~~~~~~~~~~~~~~~~~-pickslide----------------|
G|-2~~~~~~~~~~~~~~~~~~~~~~-x\\\\\\\\\\\\\\\\\\\\\\\-|
D|-0~~~~~~~~~~~~~~~~~~~~~~-x\\\\\\\\\\\\\\\\\\\\\\\-|

-Breakdown-
Matt & Padge
D|-------------------------------------------------------|
A|-------------------------------------------------------|
F|-------------------------------------------------------|
C|-----------------------------------------------------2-|
G|-2-2-2---2-2---2-2---2-2---2-2---2-2---2-2---2-2---2-2-|
D|-0-0-0---0-0---0-0---0-0---0-0---0-0---0-0---0-0---0-0-|
   - - -   - -   - -   - -   - -   - -   - -   - -   -
"SCREAM! AIM! FIIIRE!"

D|-------------------------------------------------------------|
A|-------------------------------------------------------------|
F|-------------------------------------------------------------|
C|-------------------------------------------------------------|
G|-2-2---2-2---2-2---2-2---2-2---2-2---2-2---2-2---2-2--5b--5b-|
D|-0-0---0-0---0-0---0-0---0-0---0-0---0-0---0-0---0-0--3b--3b-|
   - -   - -   - -   - -   - -   - -   - -   - -   - -
"SCREAM! AIM! FIIIIIIIIIIIIIIIIIIIIRE!"

D|---------------------------------------------------------------|
A|---------------------------------------------------------------|
F|---------------------------------------------------------------|
C|---------------------------------------------------------------|
G|-2-2~~-2-2~~-2-2~~-2-2~~-2-2~~-2-2~~-2-2~~-2-2~~-2-2~~-2--3*~~-|
D|-0-0~~-0-0~~-0-0~~-0-0~~-0-0~~-0-0~~-0-0~~-0-0~~-0-0~~-0-------|
   - -   - -   - -   - -   - -   - -   - -   - -   - -   -

D|-------------------------------------------------------------------|
A|-------------------------------------------------------------------|
F|-------------------------------------------------------------------|
C|--------------------------------------------------------------5--4-|
G|-2-2~~-2-2~~-2-2~~-2-2~~-2-2~~-2-2~~-2-2~~-2-2~~-2-2--5~--5~--3--2-|
D|-0-0~~-0-0~~-0-0~~-0-0~~-0-0~~-0-0~~-0-0~~-0-0~~-0-0--3~--3~-------|
   - -   - -   - -   - -   - -   - -   - -   - -   - -

-Solo-
Padge
D|---------------15-12-12-14-12-12-15-12-12-17-12-12-15-12-12-14-12-12-15-12-12-17-12-12-15b===|
A|-15~~~---------------------------------------------------------------------------------------|
F|-14b==-14-12~~-------------------------------------------------------------------------------|
C|---------------------------------------------------------------------------------------------|
G|---------------------------------------------------------------------------------------------|
D|---------------------------------------------------------------------------------------------|

D|---------------15-19p15----------15-19p15----------14-17p14----------14-17-------|
A|-15-13~~----17----------17----17----------17----15----------15----15-------17~~~-|
F|---------16----------------16----------------14----------------14----------------|
C|---------------------------------------------------------------------------------|
G|---------------------------------------------------------------------------------|
D|---------------------------------------------------------------------------------|

D|-19-17-15-17-19-----19-17-15-14------19-17-19-15-19-14-19---------------------|
A|----------------17~~------------17~~----------------------17-15-17-19-20-17~~-|
F|------------------------------------------------------------------------------|
C|------------------------------------------------------------------------------|
G|------------------------------------------------------------------------------|
D|------------------------------------------------------------------------------|
   T        T        T        T        T        T        T        T
D|-19p15p12-19p15p12-19p15p12-19p15p12-19p15p12-19p15p12-19p15p12-19p15p12-|
A|-------------------------------------------------------------------------|
F|-------------------------------------------------------------------------|
C|-------------------------------------------------------------------------|
G|-------------------------------------------------------------------------|
D|-------------------------------------------------------------------------|
   T        T        T        T        T        T        T        T
D|-19p14p12-19p14p12-19p14p12-20p14p12-20p14p12-20p14p12-19p14p12-19p14p12-|
A|-------------------------------------------------------------------------|
F|-------------------------------------------------------------------------|
C|-------------------------------------------------------------------------|
G|-------------------------------------------------------------------------|
D|-------------------------------------------------------------------------|

D|----------------------------------------------14h15h17-12~~~~~-|
A|-------------------------------------13h15h17----------15b====-|
F|----------------------------12h14h16---------------------------|
C|-------------------12h14h16------------------------------------|
G|----------12h14h15---------------------------------------------|
D|-12h14h15------------------------------------------------------|
Matt Under Solo
D||-------------------------------------------------------------------------|
A||o------------------------------------------------------------------------|
F||-------------------------------------------------------------------------|
C||-----------------------------------------------------------------7p0-5~~-|
G||o-2-----------------2--------------------2--------------------2----------|
D||--0-0-0-0--0-0-0--0-0-0--0-0-0--0-0-0--0-0-0--0-0-0--0-0-0--0-0----------|
       - - -  - - -  -   -  - - -  - - -  -   -  - - -  - - -  -
D|------------------------------------------------------||
A|-----------------------------------------------------o||
F|------------------------------------------------------||
C|-----------------------------------------7~~~~-4~~~~--||
G|-5--------------------5------------------5~~~~-2~~~~-o||
D|-3-3--3-3-3--3-3-3--3-3-3--3-3-3--3-3-3---------------||
     -  - - -  - - -  -   -  - - -  - - -


-Pre Chorus-
Padge
D||----------------------------------------------------||
A||o--------------------------------------------------o||
F||----------------------------------------------------||
C||----------------------------------------------7~~~--||
G||o-2--5h7-5h7-----5h7-5h7--2--2--5h8p5-----5~~-5~~~-o||
D||--0----------0-0----------0--0--------6-5-3~~-------||
Matt            - -                      - -
D||----------------------------------------------------||
A||o--------------------------------------------------o||
F||----------------------------------------------------||
C||--2-----------------------2--2----------------7~~~--||
G||o-2-----------------------2--2------------5~~-5~~~-o||
D||--0-----------------------0--0------------3~~-------||
"(OVER THE TOP! OVER THE TOP!) Right now its killing time"

Matt & Padge
D||----------------------------------------------------||
A||o--------------------------------------------------o||
F||----------------------------------------------------||
C||----------------------------------------------7~~~--||
G||o-2--5h7-5h7-----5h7-5h7--2--2--5h8p5-----5~~-5~~~-o||
D||--0----------0-0----------0--0--------6-5-3~~-------||
                - -                      - -
"(OVER THE TOP! OVER THE TOP!) The only way out is to die!"

-Chorus-
Matt
D||-------------------------------------------------------------------------------|
A||o------------------------------------------------------------------------------|
F||-------------------------------------------------------------------------------|
C||-------------------------------------------------------------------------------|
G||o-10-----9-10--------------9-10-12-10-9-10-9-------10-9--------------12p9-10~~-|
D||-----0-0------0-0-0--0-0-0-------------------0-0-0------0-0-0--0-0-0-----------|
        - -      - - -  - - -                   - - -      - - -  - - -
Padge
D||-------------------------------------------------------------------------------|
A||o------------------------------------------------------------------------------|
F||-------------------------------------------------------------------------------|
G||--9-----7--9---------------7--9--10--9-7-9-7-------9--7--------------10p7--9~~-|
C||o------------------------------------------------------------------------------|
D||----0-0-------0-0-0--0-0-0-------------------0-0-0------0-0-0--0-0-0-----------|
       - -       - - -  - - -                   - - -      - - -  - - -
"God has spoken through his conscience, as I...

Matt & Padge
D|-------------------------------------------------------------------||
A|------------------------------------------------------------------o||
F|-------------------------------------------------------------------||
C|-------------------------------------------------------------7~~~~-||
G|-10---------9--------10--------10---------9-----9-10---5~~~~-5~~~~o||
D|--8-8-8-8-8-8-8-8-8-8-8-8-8-8-8-8-8-8-8-8-8-8-8-8-8----3~~~~-------||
      - - - -   - - - -   - - - -   - - - -   - -
...Scream, Aim and Fire! The death toll grows higher"


D|--------------------------------------------------|
A|--------------------------------------------------|
F|--------------------------------------------------|
C|-2~~~~~~~~~~~~~~~~~~~~~~~~~~~~~~~~~~~~~~~~~~~~~~~-|
G|-2~~~~~~~~~~~~~~~~~~~~~~~~~~~~~~~~~~~~~~~~~~~~~~~-|
D|-0~~~~~~~~~~~~~~~~~~~~~~~~~~~~~~~~~~~~~~~~~~~~~~~-|

-Outro-
Matt & Padge
D|-------------------------------------------------------|
A|-------------------------------------------------------|
F|-------------------------------------------------------|
C|-----------------------------------------------------2-|
G|-2-2-2---2-2---2-2---2-2---2-2---2-2---2-2---2-2---2-2-|
D|-0-0-0---0-0---0-0---0-0---0-0---0-0---0-0---0-0---0-0-|
   - - -   - -   - -   - -   - -   - -   - -   - -   -
D|-------------------------------------------------------------|
A|-------------------------------------------------------------|
F|-------------------------------------------------------------|
C|-------------------------------------------------------------|
G|-2-2---2-2---2-2---2-2---2-2---2-2---2-2---2-2---2-2--5b--5b-|
D|-0-0---0-0---0-0---0-0---0-0---0-0---0-0---0-0---0-0--3b--3b-|
   - -   - -   - -   - -   - -   - -   - -   - -   - -
D|---------------------------------------------------------------|
A|---------------------------------------------------------------|
F|---------------------------------------------------------------|
C|---------------------------------------------------------------|
G|-2-2~~-2-2~~-2-2~~-2-2~~-2-2~~-2-2~~-2-2~~-2-2~~-2-2~~-2--3*~~-|
D|-0-0~~-0-0~~-0-0~~-0-0~~-0-0~~-0-0~~-0-0~~-0-0~~-0-0~~-0-------|
   - -   - -   - -   - -   - -   - -   - -   - -   - -   -
"SCREAM!! AIM!! FIIIIIIIIIIIIIIIIIIREE!!!!!!!!"
D|-------------------------------------------------------------------|
A|-------------------------------------------------------------------|
F|-------------------------------------------------------------------|
C|--------------------------------------------------------------5--4-|
G|-2-2~~-2-2~~-2-2~~-2-2~~-2-2~~-2-2~~-2-2~~-2-2~~-2-2--5~--5~--3--2-|
D|-0-0~~-0-0~~-0-0~~-0-0~~-0-0~~-0-0~~-0-0~~-0-0~~-0-0--3~--3~-------|
   - -   - -   - -   - -   - -   - -   - -   - -   - -
D|---------------------------------------------------------|
A|---------------------------------------------------------|
F|---------------------------------------------------------|
C|---------------------------------------------------------|
G|-------------------------------------------------------2-|
D|-3-2-0-6-5-3-0-5-3-2-0-6-5-3-0-5-3-2-0-6-5-3-0-5-3-2-0-0-|
   - - - - - - - - - - - - - - - - - - - - - - - - - - -

            
            
Suggest correction
Creating personal tab
Creating personal tab
You can edit any tab online and save it as your Personal.

You can edit, replace or remove any tab part or add personal notes – all changes will be seen only by you.

Personal tabs can be accessed anytime from any device, even offline.
Learn more »
comments
print report bad tab
22 comments total. Showing first comments.
+2 reply
Leonio-man 10 Mar 26, 2009 11:43 AM

thats exactly how i play the solo

+4 reply
Ghost Stalker 12 Apr 07, 2009 02:40 PM

Dude, this is so close to how I play it (aside the solo, as I can't play them yet), only two positional differences, i play matts main riff on the F string , but 5 frets higher, so musically it's the same. Also Matt's rhythm behind the intro lead harmony thing, I play that in the G string on the 3 instead of on the D on 8....

Oh and you've got the names the wrong way around for the main riff, Padge plays the part on the G string, and Matt plays the part on the F string (or as you've put it, the C)... so I suppose my point is Matt plays the higher harmony

regardless, a superb tab, kudos and sorry for the above pedantry 5*'s

+1 reply
royturner23 1,507 Apr 07, 2009 04:31 PM

thanks alot, I put a lot into what I submit.
with my tabs like these, I believe that the way you play songs,
will be HELLA lot easier and more understanding.
especially with the lyrics into them.

guest
You may want to rate the tab now too:
select rating
Wanna post a correction for this tab? Suggest correction