Oops, an error
Loading. Please wait.
We have an official The Last Fight tab made by UG professional guitarists. Check out the tab »
×
26,376 views 9 this week
5 commentsread comments
1 2 3 4 5
x 5
add to favorites
guitar tuner
Autoscroll
slow
fast
+/-
esc
set tempo
stop
"The Last Fight"
demo version
Play now

or get full version for Free

×
Get full version now!
Learn and play this song
in Tab Pro
Try for free

or get $10 off Welcome Bonus

Get welcome bonus
Get access to Tab Pro version of “The Last Fight”!
Tab Pro is a premium guitar tab service, available on PC, Mac, iOS and Android
TRY FOR FREE
To download “The Last Fight” Guitar Pro tab click button below
Please note that you must have Guitar Pro software installed on your
computer in order to view this file.
Suggest correction
comments
report bad tab
5 comments total. Showing first comments.
0 reply
Snaf 10 May 26, 2010 01:52 PM

The best version I think.

0 reply
harshrocsu 41 Jul 16, 2010 02:07 AM

thank you dude!!

0 reply
blackbird51 112 Aug 12, 2010 08:30 AM

Intro riff is inaccurate bro

Padge:

|----------------------------------------------------------|
|----------------------------------------------------------|
|----------------------------------------------------------|
|-9-----------10----------9----------7----------5------7---|
|-7--7-7-7-7--7--7-7-7-7--7-7-7-7-7--7--3-3-3-3-3--5-5-5-5-|
|----------------------------------------------------------|

Tuck:

|----------------------------------------------------------|
|----------------------------------------------------------|
|----------------------------------------------------------|
|-9-----------9-----------9----------7----------5------7---|
|-7--7-7-7-7--7--7-7-7-7--7-7-7-7-7--7--3-3-3-3-3--5-5-5-5-|
|----------------------------------------------------------|

Correct it or I will and post my own ;)

guest
You may want to rate the tab now too:
select rating