Oops, an error
Loading. Please wait.
We have an official The Poison tab made by UG professional guitarists. Check out the tab »
×
161,869 views 12 this week
38 commentsread comments
1 2 3 4 5
x 47
add to favorites
×
Save as Personal and add changes to this tab that will be seen only by you. Learn more ›
×
You can save this tab as Personal to edit and correct it or add notes. All changes will be seen only by you. Learn more »
launch autoscroll
font size
0
reset
how to read this tab
guitar tuner
backing track
0:00
0:00
edit
Autoscroll
slow
fast
+/-
esc
set tempo
stop
Bullet For My Valentine
The Poison (Solo)
The Poison (2005)
Tuning; CGCFAD
Tabbed by; Carlson2000


[Intro]
 
D|-------------------------------------------------|
A|-------------------------------------------------|
F|-------------------------------------------------| x3
C|-------------------------------------------------|
G|-7h10t14--7h10t15--7h10t14--7h10t15--7h10t15/t17-|
C|-------------------------------------------------|

D|--------------------------------------------|
A|--------------------------------------------|
F|--------------------------------------------|
C|--------------------------------------------|
G|-7h10t14--7h10t15--7h10-15-14-12-10-12-10-9-|
C|--------------------------------------------|

[Verse]
 
D|-----------------------------------------------------|
A|-----------------------------------------------------|
F|-----------------------------------------------------|
C|-10-1010101010--5-5--9-9--2-22-22-22--10-9-7-5-7-5-4-|
G|-10-1010101010--5-5--9-9--2-22-22-22-----------------|
C|-10-1010101010--5-5--9-9--2-22-22-22-----------------|
    x x x x x               xx xx xx

D|--------------------------------------------|
A|--------------------------------------------|
F|--------------------------------------------|
C|-5-5555-777-444--2-22-22-22--10-9-7-5-7-5-4-|
G|-----------------2-22-22-22-----------------|
C|-----------------2-22-22-22-----------------|
                   xx xx xx

D|-----------------------------------------------------|
A|-----------------------------------------------------|
F|-----------------------------------------------------|
C|-10-1010101010--5-5--9-9--2-22-22-22--10-9-7-5-7-5-4-|
G|-10-1010101010--5-5--9-9--2-22-22-22-----------------|
C|-10-1010101010--5-5--9-9--2-22-22-22-----------------|
    x x x x x               xx xx xx

D|----------------|
A|----------------|
F|----------------|
C|-5-5555-777-444-|
G|----------------|
C|----------------|


Intro


[Verse 2]
     
D|-----------------------------------------------------|
A|-----------------------------------------------------|
F|-----------------------------------------------------|
C|-10-1010101010--5-5--9-9--2-22-22-22--10-9-7-5-7-5-4-|
G|-10-1010101010--5-5--9-9--2-22-22-22-----------------|
C|-10-1010101010--5-5--9-9--2-22-22-22-----------------|
    x x x x x               xx xx xx

D|--------------------------------------------|
A|--------------------------------------------|
F|--------------------------------------------|
C|-5-5555-777-444--2-22-22-22--10-9-7-5-7-5-4-|
G|-----------------2-22-22-22-----------------|
C|-----------------2-22-22-22-----------------|
                   xx xx xx

D|-----------------------------------------------------|
A|-----------------------------------------------------|
F|-----------------------------------------------------|
C|-10-1010101010--5-5--9-9--2-22-22-22--10-9-7-5-7-5-4-|
G|-10-1010101010--5-5--9-9--2-22-22-22-----------------|
C|-10-1010101010--5-5--9-9--2-22-22-22-----------------|
    x x x x x               xx xx xx

D|-----------------|
A|-----------------|
F|-----------------|
C|-5-5555-777--2-2-|
G|-------------2-2-|
C|-------------2-2-|
             x x

[Chorus]
    
D|------------------------|
A|------------------------|
F|------------------------| x2
C|-2---10---5---10-10-9-9-|
G|-2---10---5---10-10-9-9-|
C|-2---10---5---10-10-9-9-|

D|-----------------------------|
A|-----------------------------|
F|-----------------------------|
C|-22-22-22-22--10-9-7-5-7-5-4-|
G|-22-22-22-22-----------------|
C|-22-22-22-22-----------------|
  xx xx xx xx


Verse 2


[Chorus 2]
      
D|------------------------|
A|------------------------|
F|------------------------| x2
C|-2---10---5---10-10-9-9-|
G|-2---10---5---10-10-9-9-|
C|-2---10---5---10-10-9-9-|


[Bridge 1]
      
D|------------------------------------------------------------|
A|------------------------------------------------------------|
F|----------------------------------------------2-------------|
C|-----4p2-5h4p2------5p2-4h5-------5p2-4p2-5p2---5p2-4h5p4-2-|  x2
G|-2-2------------3-3-----------5-5---------------------------|
C|-2-2--------------------------------------------------------|


[Pre-Solo]
      
D|-------------------------|
A|-------------------------|
F|-------------------------|
C|-2-2-2-2--10-9-7-5-7-5-4-|
G|-2-2-2-2-----------------|
C|-2-2-2-2-----------------|

  
[Solo]
      
D|-------12--------10--------12--------14--------|
A|-----------------------------------------------|
F|-11-12-----11-12-----11-12-----11-12-----11-12-|
C|-----------------------------------------------|
G|-----------------------------------------------|
C|-----------------------------------------------|

D|-------------------------------------------------|
A|-------------------------------------------------|
F-|16p14p12h14p12p11h12p11p9h11p9p7h9p7p5h7p5h7h9~-|
C|-------------------------------------------------|
G|-------------------------------------------------|
C|-------------------------------------------------|

D|-15----------------|
A|----17----17-------|
F|-------16----16----| x4
C|----------------17-|
G|-------------------|
C|-------------------|

D|-15--------------------------------------------------|
A|----17----15-------12-------10-------------------17*-|
F|-------16----16-14----14-12----12-11--12-11-7-9------|
C|-----------------------------------------------------|
G|-----------------------------------------------------|
C|-----------------------------------------------------|

D|----17-15-14-15-14-12-10-12-14-15-17-19-|
A|-12-------------------------------------|
F|----------------------------------------|
C|----------------------------------------|
G|----------------------------------------|
C|----------------------------------------|

D|-19-19-15-17-15--------------19-19-15-17-15----|
A|----------------17-12-15-17-----------------17-|
F|-----------------------------------------------|
C|-----------------------------------------------|
G|-----------------------------------------------|
C|-----------------------------------------------|

D|-12b-14b-15b-17b-|
A|-----------------|
F|-----------------|
C|-----------------|
G|-----------------|
C|-----------------|

D|-19-22-22p19p17--19-22-22p19p17--19-22-22p19p17--19-22-19-22-24b-|
A|-----------------------------------------------------------------|
F|-----------------------------------------------------------------|
C|-----------------------------------------------------------------|
G|-----------------------------------------------------------------|
C|-----------------------------------------------------------------|


[Break] x2
 
D|------------------    ------|
A|------------------    -5555-|
F|------------------    ------|
C|-222222---2222222- x2 ------|
G|-222222---2222222-    ------|
C|-222222---2222222-    ------|
 xxxxxx   xxxxxxx


[Bridge 2] x2
      
D|---------------------------------------------------------------------------------|
A|---------------------------------------------------------------------------------|
F|---------------------------------------------------------------------------------|
C|-2222-2-2222-2-22-2-2/333-3-3333-3-333-3-5555-5-5555-5-5/333-3--7-5------7-5-----|
G|-2222-2-2222-2-22-2-2/333-3-3333-3-333-3-5555-5-5555-5-5/333-3------8-7------8-7-|
C|-2222-2-2222-2-22-2-2/333-3-3333-3-333-3-5555-5-5555-5-5/333-3-------------------|
 xxxx   xxxx   xx     xxx   xxxx   xxx   xxxx   xxxx     xxx    x x x x  x x x x

  
Intro
  

[Chorus] (Acoustic)
    
D|----------------------|
A|----------------------|
F|----------------------| x2
C|-2222--10101010--5555-|
G|-2222--10101010--5555-|
C|-2222--10101010--5555-|


[Chorus 2]
      
D|------------|
A|------------|
F|------------|
C|-10-10--9-9-|
G|-10-10--9-9-|
C|-10-10--9-9-|

D|------------------------|
A|------------------------|
F|------------------------| x2
C|-2---10---5---10-10-9-9-|
G|-2---10---5---10-10-9-9-|
C|-2---10---5---10-10-9-9-|

D|---------------------------------|
A|---------------------------------|
F|---------------------------------|
C|-2---10---5---0---2---10---5---9-|
G|-2---10---5---0---2---10---5---9-|
C|-2---10---5---0---2---10---5---9-|


Bridge 1 x4


[Outro]
 
D|------------------------------|
A|------------------------------|
F|------------------------------|
C|--2-2-2-2--10-9-7-5-7-5-4-0-2-|
G|--2-2-2-2---------------------|
C|--2-2-2-2---------------------|



************************************

| h  Hammer-on
| p  Pull-off
| t  Tapping
| b  Bend
| /  Slide up
| ~  Vibrato

************************************

            
            
Suggest correction
Creating personal tab
Creating personal tab
You can edit any tab online and save it as your Personal.

You can edit, replace or remove any tab part or add personal notes – all changes will be seen only by you.

Personal tabs can be accessed anytime from any device, even offline.
Learn more »
comments
print report bad tab
38 comments total. Showing first comments.
0 reply
zakk_rhodes 10 Nov 21, 2005 01:11 PM

some of the licks are written out in a horizontal pattern on the neck, while these notes may be right, the playing isn't. try finding the same notes on (in this case) a lower string...(this is for the main lick after the powerchords in the verse riff, also some runs in the solo) other than that, a few bends here and there instead of slides and a sweep pick. not bad though

0 reply
WannabeVirtuoso 10 Dec 30, 2005 04:28 AM

what zakk said, got the right notes but in the wrong places. not bad tho =)

+1 reply
crazydrivr 93 Jul 07, 2006 12:09 PM

It looks like you are missing the whole second guitar for the intro and verse.

guest
You may want to rate the tab now too:
select rating
Wanna post a correction for this tab? Suggest correction