Oops, an error
Loading. Please wait.
We have an official The Poison tab made by UG professional guitarists. Check out the tab »
×
14,478 views 15 this week
5 commentsread comments
1 2 3 4 5
x 5
add to favorites
×
Save as Personal and add changes to this tab that will be seen only by you. Learn more ›
×
You can save this tab as Personal to edit and correct it or add notes. All changes will be seen only by you. Learn more »
launch autoscroll
font size
0
reset
how to read this tab
guitar tuner
backing track
0:00
0:00
edit
Autoscroll
slow
fast
+/-
esc
set tempo
stop
Bullet For My Valentine
The Poison
The Poison (2005)
Tuning; Dadgbe
Tabbed by; Ger Hickey

Intro
=====
-------------------------------------------------|
-------------------------------------------------|
-------------------------------------------------| x3
-------------------------------------------------|
-5h8t12--5h8t12--5h8t12--5h8t12--5h8t13/t15------|
-------------------------------------------------|

--------------------------------------------|
--------------------------------------------|
--------------------------------------------|
--------------------------------------------|
-5h8t12--5h8t12--5h8-13-11-10-8-10-8-7------|
--------------------------------------------|

Verse
=====
-----------------------------------------------------|
-----------------------------------------------------|
-----------------------------------------------------|
-8-88888--3-3--7-7--0-00-00-00--8-7-5-3-5-3-2--------|
-8-88888--3-3--7-7--0-00-00-00-----------------------|
-8-88888--3-3--7-7--0-00-00-00-----------------------|
   xxxxx              xx xx xx
---------------------------------------------|
---------------------------------------------|
---------------------------------------------|
-3-3333-555-222--0-00-00-00--8-7-5-3-5-3-2---|
-----------------0-00-00-00------------------|
-----------------0-00-00-00------------------|
                   xx xx xx
-----------------------------------------------------|
-----------------------------------------------------|
-----------------------------------------------------|
-8-88888--3-3--7-7--0-00-00-00--8-7-5-3-5-3-2--------|
-8-88888--3-3--7-7--0-00-00-00-----------------------|
-8-88888--3-3--7-7--0-00-00-00-----------------------|
   xxxxx              xx xx xx
--------------------------------------------|
--------------------------------------------|
--------------------------------------------|
-3-3333-555-222-----------------------------|
--------------------------------------------|
--------------------------------------------|

Intro

Verse 2
=======
-----------------------------------------------------|
-----------------------------------------------------|
-----------------------------------------------------|
-8-88888--3-3--7-7--0-00-00-00--8-7-5-3-5-3-2--------|
-8-88888--3-3--7-7--0-00-00-00-----------------------|
-8-88888--3-3--7-7--0-00-00-00-----------------------|
   xxxxx              xx xx xx
---------------------------------------------|
---------------------------------------------|
---------------------------------------------|
-3-3333-555-222--0-00-00-00--8-7-5-3-5-3-2---|
-----------------0-00-00-00------------------|
-----------------0-00-00-00------------------|
                   xx xx xx
-----------------------------------------------------|
-----------------------------------------------------|
-----------------------------------------------------|
-8-88888--3-3--7-7--0-00-00-00--8-7-5-3-5-3-2--------|
-8-88888--3-3--7-7--0-00-00-00-----------------------|
-8-88888--3-3--7-7--0-00-00-00-----------------------|
   xxxxx              xx xx xx
-----------------|
-----------------|
-----------------|
-3-3333-555--0-0-|
-------------0-0-|
-------------0-0-|
             x x

Chorus
======
------------------------|
------------------------|
------------------------| x2
-0---8---3---8-8-7-7----|
-0---8---3---8-8-7-7----|
-0---8---3---8-8-7-7----|

-----------------------------|
-----------------------------|
-----------------------------|
-00-00-00-00--8-7-5-3-5-3-2--|
-00-00-00-00-----------------|
-00-00-00-00-----------------|
  xx xx xx xx

Verse 2

Chorus 2
========
------------------------|
------------------------|
------------------------| x2
-0---8---3---8-8-7-7----|
-0---8---3---8-8-7-7----|
-0---8---3---8-8-7-7----|

Bridge 1
========
------------------------------------------------------------|
------------------------------------------------------------|
------------------------------------------------------------|
-----2p0-3p2p0------3p0-2h3-------3p0-2p0-3p0---3p0-2h3p2-0-|  x2
-0-0------------1-1-----------3-3---------------------------|
-0-0--------------------------------------------------------|

Pre-Solo
========
-------------------------|
-------------------------|
-------------------------|
-0-0-0-0--8-7-5-3-5-3-2--|
-0-0-0-0-----------------|
-0-0-0-0-----------------|

Solo
====
-------10--------8--------10--------12---------|
-----------------------------------------------|
-9-10-----9-10-----9-10-----9-10-----9-10------|
-----------------------------------------------|
-----------------------------------------------|
-----------------------------------------------|

-------------------------------------------------|
-------------------------------------------------|
-14p12p10h12p10p9h10p9p7h9p7p5h7p5p3h5p3h5h7~----|
-------------------------------------------------|
-------------------------------------------------|
-------------------------------------------------|

-13----------------|
----15----15-------|
-------14----14----| x4
----------------15-|
-------------------|
-------------------|

-13--------------------------------------------------|
----15----13-------10-------8-------------------15*--|
-------14----14-12----12-10----10-9--10-9-5-7--------|
-----------------------------------------------------|
-----------------------------------------------------|
-----------------------------------------------------|

----15-13-12-13-12-10-8-10-12-13-15-17--|
-10-------------------------------------|
----------------------------------------|
----------------------------------------|
----------------------------------------|
----------------------------------------|

-17-17-13-15-13--------------17-17-13-15-13----|
----------------15-10-13-15-----------------15-|
-----------------------------------------------|
-----------------------------------------------|
-----------------------------------------------|
-----------------------------------------------|

-10b-12b-13b-15b-|
-----------------|
-----------------|
-----------------|
-----------------|
-----------------|

-17-20-20p117p15--17-20-20p17p15--17-20-20p17p15--17-20-17-20-22--|b
------------------------------------------------------------------|
------------------------------------------------------------------|
------------------------------------------------------------------|
------------------------------------------------------------------|
------------------------------------------------------------------|

Break x2
=====
------------------    ------|
------------------    -3333-|
------------------    ------|
-000000---0000000- x2 ------|
-000000---0000000-    ------|
-000000---0000000-    ------|
 xxxxxx   xxxxxxx

Bridge 2 x2
========
---------------------------------------------------------------------------------|
---------------------------------------------------------------------------------|
---------------------------------------------------------------------------------|
-0000-0-0000-0-00-0-0-111-1-1111-1-111-1-3333-3-3333-3-3/111-1--5-3------5-3-----|
-0000-0-0000-0-00-0-0-111-1-1111-1-111-1-3333-3-3333-3-3/111-1------6-5------6-5-|
-0000-0-0000-0-00-0-0-111-1-1111-1-111-1-3333-3-3333-3-3/111-1-------------------|
 xxxx   xxxx   xx     xxx   xxxx   xxx   xxxx   xxxx     xxx    x x x x  x x x x

Intro
Chorus (Acoustic)
======
----------------------|
----------------------|
----------------------| x2
-0000--8888--3333-----|
-0000--8888--3333-----|
-0000--8888--3333-----|

Chorus 2
========
------------|
------------|
------------|
-8-8--7-7---|
-8-8--7-7---|
-8-8--7-7---|

------------------------|
------------------------|
------------------------| x2
-0---8---3---8-8-7-7----|
-0---8---3---8-8-7-7----|
-0---8---3---8-8-7-7----|

---------------------------------|
---------------------------------|
---------------------------------|
-0---8---3----0---8---3---7------|
-0---8---3----0---8---3---7------|
-0---8---3----0---8---3---7------|

Bridge 1 x4

Outro
=====
------------------------------|
------------------------------|
------------------------------|
--0-0-0-0--8-7-5-3-5-3-2-0----|
--0-0-0-0---------------------|
--0-0-0-0---------------------|

            
            
Suggest correction
Creating personal tab
Creating personal tab
You can edit any tab online and save it as your Personal.

You can edit, replace or remove any tab part or add personal notes – all changes will be seen only by you.

Personal tabs can be accessed anytime from any device, even offline.
Learn more »
There is a new version of this tab from 6 days ago which you may like more. Go check it out:
comments
print report bad tab
5 comments total. Showing first comments.
0 reply
crazydrivr 93 Jul 07, 2006 12:10 PM

Dude, you are missing the whole entire second guitar.

0 reply
rockker009 10 Dec 20, 2006 10:01 AM

instead of 5h8t12 u should make it 5h8 on a and then 7 on d..etc..

0 reply
sicfreak91 301 Jan 28, 2007 07:45 AM

tho this song could be played in drop D ... it is NOT . Its in Drop C. Watch a live video of them plying the song. In the verse, where theres that fast palm muting, the barre the 2 fret (D5) power chord, So the guitar there using is in drop C.

guest
You may want to rate the tab now too:
select rating
Wanna post a correction for this tab? Suggest correction