Oops, an error
Loading. Please wait.
We have an official Waking The Demon tab made by UG professional guitarists. Check out the tab »
×
35,256 views 3 this week
9 commentsread comments
1 2 3 4 5
x 16
add to favorites
×
Save as Personal and add changes to this tab that will be seen only by you. Learn more ›
×
You can save this tab as Personal to edit and correct it or add notes. All changes will be seen only by you. Learn more »
launch autoscroll
font size
0
reset
guitar tuner
backing track
0:00
0:00
edit
Autoscroll
slow
fast
+/-
esc
set tempo
stop
Author
		------------------------------------------------------------------
       	   	 	   WAKING THE DEMON - Bullet For My Valentine
		------------------------------------------------------------------

Tuning: Drop C (C,G,C,F)

My First Bass tab!

I'm pretty sure this is all right, I know everyone says this but I'm really sure!

I changed the pitch of the song to get the right basslines and everything if you're wondering
I know there are tabs
already, I just couldn't find ones I thought were good enough, they have the right idea 
just missing out
some fills and stuff.

I made it on Guitar Pro, then exported it as ASCII, thats why it might look a little 
to the other ones.

Enjoy!

Any questions or queries contact me on my YouTube; http://www.youtube.com/musicman1066

Intro

F||--------------------------|--------------------------|
C||--------------------------|--------------------------|
G||--------------------------|--------------------------|
C||--4-----------------------|--4-----------------5--7--|

--------------------------|--------------------------|
--------------------------|--------------------------|
--------------------------|--------------------------|
--4-----------------------|--4-----------4-----------|

-------------------|-------------------|-------------------|
-------------------|-------------------|-------------------|
-------------------|-------------------|-------------------|
--4----------------|--L----------------|--4----------------|

----------------------|----------------------|-----------------------|
----------------------|----------------------|-----------------------|
----------------------|----------------------|-----------------------|
--/14\----------------|--4----4----4----4----|--4----4----4----5--7--|

--------------------------|---------------------|
--------------------------|---------------------|
--------------------------|---------------------|
-----4-----4-----4-----4--|--14S----------------|

----------------------------------|--------------------------------|
----------------------------------|--------------------------------|
----------------------------------|--------------------------------|
--4-4-4-4-4-4-4-4-4-4-4-4-4-4-4-4-|--4-4-4-4-4-4-4-4-4-4-4-4-5--7--|

----------------------------------|----------------------------------|
----------------------------------|----------------------------------|
----------------------------------|----------------------------------|
--4-4-4-4-4-4-4-4-4-4-4-4-4-4-4-4-|--0-0-0-0-0-0-0-0-2-2-2-2-2-2-2-2-|

----------------------------------|--------------------------------|
----------------------------------|--------------------------------|
----------------------------------|--------------------------------|
--4-4-4-4-4-4-4-4-4-4-4-4-4-4-4-4-|--4-4-4-4-4-4-4-4-4-4-4-4-5--7--|

----------------------------------|----------------------------------|
----------------------------------|----------------------------------|
----------------------------------|--5-5-5-5-5-5-5-5-----------------|
--4-4-4-4-4-4-4-4-4-4-4-4-4-4-4-4-|------------------2-2-2-2-2-2-2-2-|

Pre-Verse

-------------------|--------------------------|
-------------------|--------------------------|
-------------------|--------------------------|
--0----------------|--0-----------2-----------|

Verse 1

----------------------------------|--------------------------------|
----------------------------------|--------------------------------|
----------------------------------|--------------------------------|
--4-4-4-4-4-4-4-4-4-4-4-4-4-4-4-4-|--4-4-4-4-4-4-4-4-4-4-4-4-5--7--|

----------------------------------|----------------------------------|
----------------------------------|----------------------------------|
----------------------------------|----------------------------------|
--4-4-4-4-4-4-4-4-4-4-4-4-4-4-4-4-|--0-0-0-0-0-0-0-0-2-2-2-2-2-2-2-2-|

----------------------------------|--------------------------------|
----------------------------------|--------------------------------|
----------------------------------|--------------------------------|
--4-4-4-4-4-4-4-4-4-4-4-4-4-4-4-4-|--4-4-4-4-4-4-4-4-4-4-4-4-5--7--|

----------------------------------|----------------------------------|
----------------------------------|----------------------------------|
----------------------------------|----------------------------------|
--4-4-4-4-4-4-4-4-4-4-4-4-4-4-4-4-|--0-0-0-0-0-0-0-0-2-2-2-2-2-2-2-2-|

Verse Pt. 2

----------------------------------|----------------------------|
----------------------------------|----------------------------|
----------------------------------|----------------------------|
--4-4-4-4-----4-4-4-4-L---4-4-4-4-|-----4-4-4-4----0--L--2--L--|

----------------------------------|----------------------------|
----------------------------------|----------------------------|
----------------------------------|----------------------------|
--4-4-4-4-----4-4-4-4-L---4-4-4-4-|-----4-4-4-4----0-----2-----|

----------------------------------|----------------------------|
----------------------------------|----------------------------|
----------------------------------|----------------------------|
--4-4-4-4-----4-4-4-4-L---4-4-4-4-|-----4-4-4-4----0--L--2--L--|

----------------------------------|-----------------------------|
----------------------------------|-----------------------------|
----------------------------------|----------------/7--L--4--L--|
--4-4-4-4-----4-4-4-4-L---4-4-4-4-|-----4-4-4-4-----------------|

Pre-Chorus

----------------------------------|----------------------------------|
----------------------------------|----------------------------------|
--5-5-5-5-5-5-5-5-5-5-5-5-5-5-5-5-|--4-4-4-4-4-4-4-4-0-0-0-0-0-0-0-0-|
----------------------------------|----------------------------------|

----------------------------------|----------------------------------|
----------------------------------|----------------------------------|
--9-9-9-9-9-9-9-9-9-9-9-9-9-9-9-9-|--7-7-7-7-7-7-7-7-0-0-0-0-0-0-0-0-|
----------------------------------|----------------------------------|

----------------------------------|----------------------------------|
----------------------------------|----------------------------------|
--5-5-5-5-5-5-5-5-5-5-5-5-5-5-5-5-|--4-4-4-4-4-4-4-4-0-0-0-0-0-0-0-0-|
----------------------------------|----------------------------------|

----------------------------------|-----------------------|
----------------------------------|-----------------------|
----------------------------------|-----------------------|
--4-4-4-4-4-4-4-4-4-4-4-4-4-4-4-4-|--4\-------------------|

Verse 2

----------------------------------|--------------------------------|
----------------------------------|--------------------------------|
----------------------------------|--------------------------------|
--4-4-4-4-4-4-4-4-4-4-4-4-4-4-4-4-|--4-4-4-4-4-4-4-4-4-4-4-4-5--7--|

----------------------------------|----------------------------------|
----------------------------------|----------------------------------|
----------------------------------|----------------------------------|
--4-4-4-4-4-4-4-4-4-4-4-4-4-4-4-4-|--0-0-0-0-0-0-0-0-2-2-2-2-2-2-2-2-|

----------------------------------|--------------------------------|
----------------------------------|--------------------------------|
----------------------------------|--------------------------------|
--4-4-4-4-4-4-4-4-4-4-4-4-4-4-4-4-|--4-4-4-4-4-4-4-4-4-4-4-4-5--7--|

----------------------------------|----------------------------------|
----------------------------------|----------------------------------|
----------------------------------|----------------------------------|
--4-4-4-4-4-4-4-4-4-4-4-4-4-4-4-4-|--0-0-0-0-0-0-0-0-2-2-2-2-2-2-2-2-|

Verse Pt. 2

----------------------------------|----------------------------|
----------------------------------|----------------------------|
----------------------------------|----------------------------|
--4-4-4-4-----4-4-4-4-L---4-4-4-4-|-----4-4-4-4----0--L--2--L--|

----------------------------------|----------------------------|
----------------------------------|----------------------------|
----------------------------------|----------------------------|
--4-4-4-4-----4-4-4-4-L---4-4-4-4-|-----4-4-4-4----0-----2-----|

----------------------------------|----------------------------|
----------------------------------|----------------------------|
----------------------------------|----------------------------|
--4-4-4-4-----4-4-4-4-L---4-4-4-4-|-----4-4-4-4----0--L--2--L--|

----------------------------------|-----------------------------|
----------------------------------|-----------------------------|
----------------------------------|----------------/7--L--4--L--|
--4-4-4-4-----4-4-4-4-L---4-4-4-4-|-----4-4-4-4-----------------|

Pre-Chorus

----------------------------------|----------------------------------|
----------------------------------|----------------------------------|
--5-5-5-5-5-5-5-5-5-5-5-5-5-5-5-5-|--4-4-4-4-4-4-4-4-0-0-0-0-0-0-0-0-|
----------------------------------|----------------------------------|

----------------------------------|----------------------------------|
----------------------------------|----------------------------------|
--9-9-9-9-9-9-9-9-9-9-9-9-9-9-9-9-|--7-7-7-7-7-7-7-7-0-0-0-0-0-0-0-0-|
----------------------------------|----------------------------------|

----------------------------------|----------------------------------|
----------------------------------|----------------------------------|
--5-5-5-5-5-5-5-5-5-5-5-5-5-5-5-5-|--4-4-4-4-4-4-4-4-0-0-0-0-0-0-0-0-|
----------------------------------|----------------------------------|

----------------------------------|
----------------------------------|
----------------------------------|
--4-4-4-4-4-4-4-4-4-4-4-4-4-4-4-4-|

                                                                                    Chorus

-----------------------------------|------------------------|
-----------------------------------|------------------------|
-----------------------------------|------------------------|
--4-4-4-4-4-4-4-4-4-4-4-4-4S--14\--|--0------0--0--0-----0--|

------------------------|------------------------|
------------------------|------------------------|
------------------------|------------------------|
--2------2--2--2-----2--|--4------4--4--4--4/----|

-----4--6-----------------|------------------------|
--4--------4-----4--7--4--|------------------------|
--------------7-----------|------------------------|
--------------------------|--0------0--0--0-----0--|

------------------------|------------------------|
------------------------|------------------------|
------------------------|------------------------|
--2------2--2--2-----2--|--4------4--4--4-----4--|

--------------------------|------------------------|
--------------------------|------------------------|
--------------------------|------------------------|
--4--4--4--4--2--2--2--2--|--0------0--0--0-----0--|

------------------------|------------------------|
------------------------|------------------------|
------------------------|------------------------|
--2------2--2--2-----2--|--4------4--4--4--4/----|

-----4--6--------------4--|------------------------|
--4--------4-----4--7-----|------------------------|
--------------7-----------|------------------------|
--------------------------|--0------0--0--0-----0--|

------------------------|------------------------|
------------------------|------------------------|
------------------------|------------------------|
--2------2--2--2-----2--|--4------4--4--4-----4--|

                                                                  Pre-Solo

--------------------------|----------------------------|
--------------------------|----------------------------|
--------------------------|----------------------------|
--4--4--4--4--2--2--2--2--|--4-----------------4-4-4-4-|

----------------------------|----------------------------|
----------------------------|----------------------------|
----------------------------|----------------------------|
--4-----------------4-4-4-4-|--4-----------------4-4-4-4-|

----------------------------|----------------------------------|
----------------------------|----------------------------------|
----------------------------|----------------------------------|
--4-----------------4-4-4-4-|--5-4-4-4-4-4-5-4-4-4-4-4-5-4-0-4-|

----------------------------------|----------------------------------|
----------------------------------|----------------------------------|
----------------------------------|----------------------------------|
--5-4-4-4-4-4-5-4-4-4-4-4-5-4-0-4-|--5-4-4-4-4-4-5-4-4-4-4-4-5-4-0-4-|

                                                                                   Solo

----------------------------------|----------------------------------|
----------------------------------|----------------------------------|
----------------------------------|----------------------------------|
--5-4-4-4-4-4-5-4-4-L-------------|--4-4-4-4-4-4-4-4-4-4-4-4-4-4-4-4-|

--------------------------------|----------------------------------|
--------------------------------|----------------------------------|
--------------------------------|----------------------------------|
--4-4-4-4-4-4-4-4-4-4-4-4-5--7--|--4-4-4-4-4-4-4-4-4-4-4-4-4-4-4-4-|

----------------------------------|----------------------------------|
----------------------------------|----------------------------------|
----------------------------------|----------------------------------|
--0-0-0-0-0-0-0-0-2-2-2-2-2-2-2-2-|--4-4-4-4-4-4-4-4-4-4-4-4-4-4-4-4-|

--------------------------------|----------------------------------|
--------------------------------|----------------------------------|
--------------------------------|----------------------------------|
--4-4-4-4-4-4-4-4-4-4-4-4-5--7--|--4-4-4-4-4-4-4-4-4-4-4-4-4-4-4-4-|

----------------------------------|----------------------------------|
----------------------------------|----------------------------------|
----------------------------------|--5-5-5-5-5-5-5-5-5-5-5-5-5-5-5-5-|
--0-0-0-0-0-0-0-0-2-2-2-2-2-2-2-2-|----------------------------------|

----------------------------------|----------------------------------|
----------------------------------|----------------------------------|
--4-4-4-4-4-4-4-4-0-0-0-0-0-0-0-0-|--9-9-9-9-9-9-9-9-9-9-9-9-9-9-9-9-|
----------------------------------|----------------------------------|

----------------------------------|----------------------------------|
----------------------------------|----------------------------------|
--7-7-7-7-7-7-7-7-0-0-0-0-0-0-0-0-|--5-5-5-5-5-5-5-5-5-5-5-5-5-5-5-5-|
----------------------------------|----------------------------------|

----------------------------------|----------------------------------|
----------------------------------|----------------------------------|
--4-4-4-4-4-4-4-4-0-0-0-0-0-0-0-0-|----------------------------------|
----------------------------------|--4-4-4-4-4-4-4-4-4-4-4-4-4-4-4-4-|

                                                                                      Chorus

-----------------------------------|------------------------|
-----------------------------------|------------------------|
-----------------------------------|------------------------|
--4-4-4-4-4-4-4-4-4-4-4-4-4S--14\--|--0------0--0--0-----0--|

------------------------|------------------------|
------------------------|------------------------|
------------------------|------------------------|
--2------2--2--2-----2--|--4------4--4--4--4/----|

-----4--6-----------------|------------------------|
--4--------4-----4--7--4--|------------------------|
--------------7-----------|------------------------|
--------------------------|--0------0--0--0-----0--|

------------------------|------------------------|
------------------------|------------------------|
------------------------|------------------------|
--2------2--2--2-----2--|--4------4--4--4-----4--|

--------------------------|------------------------|
--------------------------|------------------------|
--------------------------|------------------------|
--4--4--4--4--2--2--2--2--|--0------0--0--0-----0--|

------------------------|------------------------|
------------------------|------------------------|
------------------------|------------------------|
--2------2--2--2-----2--|--4------4--4--4--4/----|

-----4--6--------------4--|------------------------|
--4--------4-----4--7-----|------------------------|
--------------7-----------|------------------------|
--------------------------|--0------0--0--0-----0--|

------------------------|------------------------|
------------------------|------------------------|
------------------------|------------------------|
--2------2--2--2-----2--|--4------4--4--4-----4--|

                                                                  Outro

--------------------------|--------------------------|
--------------------------|--------------------------|
--------------------------|--------------------------|
--4--4--4--4--2--2--2--2--|--4-----------------------|

--------------------------|----------------------------------|
--------------------------|----------------------------------|
--------------------------|----------------------------------|
--4-----------------5--7--|--4-4-4-4-4-4-4-4-4-4-4-4-4-4-4-4-|

----------------------------------|--------------|
----------------------------------|--------------|
----------------------------------|--------------|
--0-0-0-0-0-0-0-0-2-2-2-2-2-2-2-2-|--4-----------|

---------------------------|----------------------------||
---------------------------|----------------------------||
---------------------------|----------------------------||
--4\--L--------------------|--4-4-4-4-------------------||


Duration Legend
---------------
W - whole
H - half
Q - quarter
E - 8th
S - 16th
T - 32nd
X - 64th
. - note dotted
|-n-|  - n-tuplets


Tablature Legend
----------------
L - tied note
x - dead note
g - grace note
(n) - ghost note
> - accentuded note
NH - natural harmonic
AH - artificial harmonic
TH - tapped harmonic
SH - semi harmonic
PH - pitch harmonic
h - hammer on
p - pull off
b - bend
br - bendRelease
pb - preBend
pbr - preBendRelease
brb - bendReleaseBend
\n/ - tremolo bar dip
\n - tremolo bar dive
-/n - tremolo bar Release up
/n\ - tremolo bar inverted dip
/n - tremolo bar return
-\n - tremolo bar Release down
S - shift slide
s - legato slide
/ -  slide into from below or out of upwards
\ -  slide into from above or out of downwards
~ - vibrato
W - wide vibrato
tr - trill
TP - tremolo picking
T - tapping
S - slap
P - pop
< - fade in
^ - brush up
v - brush down

            
            
Suggest correction
Creating personal tab
Creating personal tab
You can edit any tab online and save it as your Personal.

You can edit, replace or remove any tab part or add personal notes – all changes will be seen only by you.

Personal tabs can be accessed anytime from any device, even offline.
Learn more »
comments
print report bad tab
9 comments total. Showing first comments. show 1 bad comment
+1 reply
shalevtom02 10 Jun 12, 2008 12:40 PM

you are the mask guy from youtube that do guitar covers

0 reply
tommybee92 10 Jan 06, 2009 09:04 AM

the ist bar in the pre solo and outro doesnt exist. it shouldnt be there and im nt sure if the first few bars in the chorus's are right or nt bt apart from tht its an ok tab, easy song.

guest
You may want to rate the tab now too:
select rating
Wanna post a correction for this tab? Suggest correction