Oops, an error
Loading. Please wait.

Watching Us Die Tonight bass

version 1
version 1

Whole song

Interactive

2,795 views 1 this week
1 commentread comment
1 2 3 4 5
1 last vote to show rating
add to favorites
×
Save as Personal and add changes to this tab that will be seen only by you. Learn more ›
×
You can save this tab as Personal to edit and correct it or add notes. All changes will be seen only by you. Learn more »
launch autoscroll
font size
0
reset
guitar tuner
edit
Autoscroll
slow
fast
+/-
esc
set tempo
stop
Author
Bullet For My Valentine – Watching Us Die Tonight

Bass (pick)
Bassist: Jason James

Tuning: DGCF

First four measures only guitar

INTRO:
|----------------------------------------------------|
|----------------------------------------------------|
|----------------------------------------------------|
|-3----5----7----7----3----5----5-5-5-5-/17-17-17-17-|

VERSE
|---------------------------------|
|---------------------------------|  3x
|---------------------------------|
|-7-7-7-7-7-7-7-7-7-7-7-7-7-7-7-7-| 

|---------------------------------|
|---------------------------------|
|---------------------------------|
|-3-3-3-3-3-3-3-3-5-5-5-5-5-5-5-5-|

|---------------------------------|
|---------------------------------|  3x
|---------------------------------|
|-7-7-7-7-7-7-7-7-7-7-7-7-7-7-7-7-| 

|---------------------------------|
|---------------------------------|
|---------------------------------|
|-3-3-3-3-3-3-3-3-5-5-5-5-5-5-5-5-|

INTERLUDE
|-----------------------------------------------------------------| 
|-----------------------------------------------------------------| 4x
|-----------------------------------------------------------------|
|-5-5-5-5-5-5-5-5-5-5-5-5-5-5-5-5-7-7-7-7-7-7-7-7-3-3-3-3-3-3—-7--|

CHORUS
|-------------------------------------|
|-------------------------------------|
|-------------------------------------|
|-7-7-7-7-10—-9--5--7-7-7-7-10--9--5--|

|-------------------------------------|
|-------------------------------------|
|---------5--4-------------7--5-------|
|-3-3-3-3-------3--5-5-5-5-------5----|

|-------------------------------------|
|-------------------------------------|
|-------------------------------------|
|-7-7-7-7-10—-9--5--7-7-7-7-10--9--5--|

|-------------------------------------|
|-------------------------------------|
|---------5--4-------------7--5-------|
|-3-3-3-3-------3--5-5-5-5-------5----|


VERSE
|---------------------------------|
|---------------------------------|  3x
|---------------------------------|
|-7-7-7-7-7-7-7-7-7-7-7-7-7-7-7-7-| 

|---------------------------------|
|---------------------------------|
|---------------------------------|
|-3-3-3-3-3-3-3-3-5-5-5-5-5-5-5-5-|

|---------------------------------|
|---------------------------------|  3x
|---------------------------------|
|-7-7-7-7-7-7-7-7-7-7-7-7-7-7-7-7-| 

|---------------------------------|
|---------------------------------|
|---------------------------------|
|-3-3-3-3-3-3-3-3-5-5-5-5-5-5-5-5-|

INTERLUDE
|-----------------------------------------------------------------| 
|-----------------------------------------------------------------| 4x
|-----------------------------------------------------------------|
|-5-5-5-5-5-5-5-5-5-5-5-5-5-5-5-5-7-7-7-7-7-7-7-7-3-3-3-3-3-3—-7--|

CHORUS
|-------------------------------------|
|-------------------------------------|
|-------------------------------------|
|-7-7-7-7-10—-9--5--7-7-7-7-10--9--5--|

|-------------------------------------|
|-------------------------------------|
|---------5--4-------------7--5-------|
|-3-3-3-3-------3--5-5-5-5-------5----|

|-------------------------------------|
|-------------------------------------|
|-------------------------------------|
|-7-7-7-7-10—-9--5--7-7-7-7-10--9--5--|

|-------------------------------------|
|-------------------------------------|
|---------5--4-------------7--5-------|
|-3-3-3-3-------3--5-5-5-5-------5----|

BRIDGE
|----------------------------|
|----------------------------| 2x
|----------------------------|
|-3----2-3-5---2----0-2-3----|

|-----------------------------------------------------------------|
|-----------------------------------------------------------------|
|-----------------------------------------------------------------|
|-3-3-3-3-3-3-2-3-5-5-5-5-5-5-5-5-2-2-2-2-2-2-0-2-3-3-3-3-3-3-3-3-|

|-----------------------------------------------------------------|
|-----------------------------------------------------------------|
|-----------------------------------------------------------------|
|-3-3-3-3-3-3-2-3-5-5-5-5-5-5-5-5-2-2-2-2-2-2-0-2-3----3-----3----|

INTERLUDE
|-----------------------------------------------------------------| 
|-----------------------------------------------------------------| 4x
|-----------------------------------------------------------------|
|-5-5-5-5-5-5-5-5-5-5-5-5-5-5-5-5-7-7-7-7-7-7-7-7-3-3-3-3-3-3—-7--|

CHORUS
|-------------------------------------|
|-------------------------------------|
|-------------------------------------|
|-7-7-7-7-10—-9--5--7-7-7-7-10--9--5--|

|-------------------------------------|
|-------------------------------------|
|---------5--4-------------7--5-------|
|-3-3-3-3-------3--5-5-5-5-------5----|

|-------------------------------------|
|-------------------------------------|
|-------------------------------------|
|-7-7-7-7-10—-9--5--7-7-7-7-10--9--5--|

|----------------------------------------------------------|
|----------------------------------------------------------|
|---------5--4---------------------------------------------|
|-3-3-3-3-------3--5-5-5-5-5-5-5-5-17-17-17-17-17-17-17-17-|

END
|---------------------------------|
|---------------------------------|  3x
|---------------------------------|
|-7-7-7-7-7-7-7-7-7-7-7-7-7-7-7-7-| 

|---------------------------------|
|---------------------------------|
|---------------------------------|
|-3-3-3-3-3-3-3-3-5-5-5-5-5-5-5-5-|

|---------------------------------|
|---------------------------------|  3x
|---------------------------------|
|-7-7-7-7-7-7-7-7-7-7-7-7-7-7-7-7-| 

|---------------------------------|
|---------------------------------|
|---------------------------------|
|-3---------------5---------------|

|---------------------------------|
|---------------------------------|
|---------------------------------|
|-7------------------10--9--5--7--|

            
            
Suggest correction
Creating personal tab
Creating personal tab
You can edit any tab online and save it as your Personal.

You can edit, replace or remove any tab part or add personal notes – all changes will be seen only by you.

Personal tabs can be accessed anytime from any device, even offline.
Learn more »
Give kudos to tab author, rate the tab!
1 2 3 4 5
comments
print report bad tab
1 comment total.
+1 reply
Shuckins 10 Apr 04, 2010 12:29 PM

why tab this is drop D when everything else they play is in drop C and this song is easily played in C as well???

guest
You may want to rate the tab now too:
select rating
Wanna post a correction for this tab? Suggest correction