Oops, an error
Loading. Please wait.
We have an official Worthless tab made by UG professional guitarists. Check out the tab »
×
1,111 views 9 this week
no commentswrite comment
1 2 3 4 5
3 more votes to show rating
add to favorites
×
Save as Personal and add changes to this tab that will be seen only by you. Learn more ›
×
You can save this tab as Personal to edit and correct it or add notes. All changes will be seen only by you. Learn more »
launch autoscroll
font size
0
reset
how to read this tab
guitar tuner
backing track
0:00
0:00
edit
Autoscroll
slow
fast
+/-
esc
set tempo
stop
-----------------------------------------------------------------------------------------------------
                             Worthless - Bullet For My Valentine - Venom
-----------------------------------------------------------------------------------------------------
Tabbed by: randomdemon11
E-mail: randomdemon@hotmail.co.uk

Tuning: Drop C
Pace: 180bpm

Hi, guys! This song in particular from Venom resonates with me in a sentimental kind of way. The lyrics from
this song echoes some of the experiences I've had in my life. Together with the awesome riffs, this is one
simple, yet brilliant song. I learnt it by ear.

The timings shown are for the Spotify version of Worthless from the full album, Venom, though I'm sure
they'll be accurate enough for other versions and the YouTube official video. For help with timing, the
quavers of each bar are represented by the "1 & 2 & 3 &". Side note: some of the sections have
had the spacing between the "1 & 2 & 3 &" modified to accommodate for those pesky double digit
frets and keep everything in line. Rhythm is important. For further guidance, I've also added lyrics
alongside some of the sections, so you don't lose track of where you are.

I've put the guitar parts next to each other in their relative sections rather than tabbing all of
guitar 1 and then all of guitar 2 so it'll be easier to see what's going on when. Sometimes, there's an
additional guitar (Guitar 3) for the clean melodies introduced. This is a recorded guitar and has been laid
on top of Matt and Padge's guitars.

Enjoy the tab!

Intro      (0:00 - 0:25)
Verse 1    (0:25 - 0:57)
Chorus 1   (0:57 - 1:16)
Verse 2    (1:16 - 1:48)
Chorus 2   (1:48 - 2:12)
Bridge     (2:12 - 2:28)
Pre-Chorus (2:28 - 2:35)
Chorus 3   (2:35 - 3:07)
Outro      (3:01 - 3:18)



Intro (0:00 - 0:25)

Guitar 1

YOU'RE WORTHLESS TO...

   1   &   2   &   3   &     1   &   2   &   3   &    
D|-------------------------|-------------------------|
A|-------------------------|-------------------------|
F|-------------------------|-------------------------|
C|-0~-------------0--------|-0~-------------0--------|
G|-0~-------------0--------|-0~-------------0--------|
C|-0~-------------0--------|-0~-------------0--------|

   ME!

   1   &   2   &   3   &     1   &   2   &   3   &    
D|-------------------------|-------------------------|
A|-------------------------|-------------------------|
F|-------------------------|-------------------------|
C|-0~-------------0--------|-------------------------|
G|-0~-------------0--------|-------------------------|
C|-0~-------------0--------|-------------------------|

   1   &   2   &   3   &     1   &   2   &   3   &    
D|-------------------------|-------------------------|
A|-------------------------|-------------------------|
F|-------------------------|-------------------------|
C|-0~-------------0--------|-0~-------------0--------|
G|-0~-------------0--------|-0~-------------0--------|
C|-0~-------------0--------|-0~-------------0--------|

   1   &   2   &   3   &     1   &   2   &   3   &    
D|-------------------------|-------------------------|
A|-------------------------|-------------------------|
F|-------------------------|-------------------------|
C|-10~---------------------|-3~----------------------|
G|-8~----------------------|-3~----------------------|
C|-8~----------------------|-3~----------------------|

   1   &   2   &   3   &     1   &   2   &   3   &    
D|-------------------------|-------------------------|
A|-------------------------|-------------------------|
F|-------------------------|-------------------------|
C|-0~-------------0--------|-0~-------------0--------|
G|-0~-------------0--------|-0~-------------0--------|
C|-0~-------------0--------|-0~-------------0--------|

   1   &   2   &   3   &     1   &   2   &   3   &    
D|-------------------------|-------------------------|
A|-------------------------|-------------------------|
F|-------------------------|-------------------------|
C|-0~-------------0--------|-------------------------|
G|-0~-------------0--------|-------------------------|
C|-0~-------------0--------|-------------------------|

   1   &   2   &   3   &     1   &   2   &   3   &    
D|-------------------------|-------------------------|
A|-------------------------|-------------------------|
F|-------------------------|-------------------------|
C|-10~---------------------|-10~---------------------|
G|-8~----------------------|-8~----------------------|
C|-8~----------------------|-8~----------------------|

   1   &   2   &   3   &     1   &   2   &   3   &    
D|-------------------------|-------------------------|
A|-------------------------|-------------------------|
F|-------------------------|-------------------------|
C|-0~----------------------|-3~----------------------|
G|-0~----------------------|-3~----------------------|
C|-0~----------------------|-3~----------------------|

   1   &   2   &   3   &     1   &   2   &   3   &    
D|-------------------------|-------------------------|
A|-------------------------|-------------------------|
F|-------------------------|-------------------------|
C|-0~----------------------|-(0)---------------------|
G|-0~----------------------|-(0)---------------------|
C|-0~----------------------|-(0)---------------------|

   1   &   2   &   3   &     1   &   2   &   3   &    
D|-------------------------|-------------------------|
A|-------------------------|-------------------------|
F|-------------------------|-------------------------|
C|-(0)---------------------|-(0)---------------------|
G|-(0)---------------------|-(0)---------------------|
C|-(0)---------------------|-(0)---------------------|

   1   &   2   &   3   &     1   &   2   &   3   &    
D|-------------------------|-------------------------|
A|-------------------------|-------------------------|
F|-------------------------|-------------------------|
C|-(0)---------------------|-(0)---------------------|
G|-(0)---------------------|-(0)---------------------|
C|-(0)---------------------|-(0)---------------------|

   1   &   2   &   3   &     1   &   2   &   3   &    
D|-------------------------|-------------------------|
A|-------------------------|-------------------------|
F|-------------------------|-------------------------|
C|-------------------------|-------------------------|
G|-------------------------|-------------------------|
C|-------------------------|-------------------------|


Guitar 2

YOU'RE WORTHLESS TO...

   1   &   2   &   3   &     1   &   2   &   3   &    
D|-------------------------|-------------------------|
A|-------------------------|-------------------------|
F|-------------------------|-------------------------|
C|-10--0---0---7---0---10--|-8---0---0---5---0---8---|
G|-------------------------|-------------------------|---|
C|-------------------------|-------------------------|   |
   .   .   .   .   .   .     .   .   .   .   .   .       |
   ME!                                                   | x4
                                                         |
   1   &   2   &   3   &     1   &   2   &   3   &       |
D|-------------------------|-------------------------|   |
A|-------------------------|-------------------------|---|
F|-------------------------|-------------------------|
C|-7---0---0---3---0---7---|-5p--0h--3p--0h--2p--0---|
G|-------------------------|-------------------------|
C|-------------------------|-------------------------|
   .   .   .   .   .   .

   1   &   2   &   3   &     1   &   2   &   3   &    
D|-5~~~~~~~~~~~5~~~~~~~~~~~|~6~~~~~~~~~~~6~~~~~~~~~~~|
A|-----3~~~3~~~~~~~3~~~3~~~|~~~~~3~~~3~~~~~~~3~~~3~~~|
F|-------------------------|-------------------------|
C|-------------------------|-------------------------|
G|-------------------------|-------------------------|
C|-------------------------|-------------------------|

   1   &   2   &   3   &     1   &   2   &   3   &    
D|~5~~~~~~~~~~~5~~~~~~~~~~~|~3~~~~~~~~~~~3~~~~~~~~~~~|
A|~~~~~3~~~3~~~~~~~3~~~3~~~|~~~~~3~~~3~~~~~~~3~~~3~~~|
F|-------------------------|-------------------------|
C|-------------------------|-------------------------|
G|-------------------------|-------------------------|
C|-------------------------|-------------------------|

   1   &   2   &   3   &     1   &   2   &   3   &    
D|~5~~~~~~~~~~~5~~~~~~~~~~~|~3~~~~~~~~~~~3~~~~~~~~~~~|
A|~~~~~3~~~3~~~~~~~3~~~3~~~|~~~~~3~~~3~~~~~~~3~~~3~~~|
F|-------------------------|-------------------------|
C|-------------------------|-------------------------|
G|-------------------------|-------------------------|
C|-------------------------|-------------------------|

   1   &   2   &   3   &     1   &   2   &   3   &    
D|-------------------------|-------------------------|
A|-------------------------|-------------------------|
F|-------------------------|-------------------------|
C|-------------------------|-------------------------|
G|-------------------------|-------------------------|
C|-------------------------|-------------------------|

        Have you nothing to...

Guitar 3 (Clean)

YOU'RE WORTHLESS TO...

   1   &   2   &   3   &     1   &   2   &   3   &    
D|-------------------------|-------------------------|
A|-------------------------|-------------------------|
F|-------------------------|-------------------------| x2
C|-------------------------|-------------------------|
G|-------------------------|-------------------------|
C|-------------------------|-------------------------|

   ME!

   1   &   2   &   3   &     1   &   2   &   3   &    
D|-------------------------|-------------------------|
A|-------------------------|-10~~~~~~~~~~~~~~~~~~~~~~|
F|-------------------------|-------------------------|
C|-------------------------|-------------------------|
G|-------------------------|-------------------------|
C|-------------------------|-------------------------|

   1   &   2   &   3   &     1   &   2   &   3   &    
D|~12~~~~~~~~~~~~~~~~~~~~~~|~13~~~~~~~~~~~~~~~~~~~~~~|
A|-------------------------|-------------------------|
F|-------------------------|-------------------------|
C|-------------------------|-------------------------|
G|-------------------------|-------------------------|
C|-------------------------|-------------------------|

   1   &   2   &   3   &     1   &   2   &   3   &    
D|-------------------------|-------------------------|
A|-------------------------|-------------------------|
F|-------------------------|-------------------------| X2
C|-------------------------|-------------------------|
G|-------------------------|-------------------------|
C|-------------------------|-------------------------|

   1   &   2   &   3   &     1   &   2   &   3   &    
D|-------------------------|-------------------------|
A|-------------------------|-10~~~~~~~~~~~~~~~~~~~~~~|
F|-------------------------|-------------------------|
C|-------------------------|-------------------------|
G|-------------------------|-------------------------|
C|-------------------------|-------------------------|

   1   &   2   &   3   &     1   &   2   &   3   &    
D|-------------------------|-------------------------|
A|-------------------------|-------------------------|
F|~9~~~~~~~~~~~~~~~~~~~~~~~|~7~~~~~~~~~~~~~~~~~~~~~~~|
C|-------------------------|-------------------------|
G|-------------------------|-------------------------|
C|-------------------------|-------------------------|




Verse 1 (0:25 - 0:57)

Guitar 1

   1   &   2   &   3   &     1   &   2   &   3   &    
D|-------------------------|-------------------------|
A|-------------------------|-------------------------|
F|-------------------------|-------------------------| x8
C|-------------------------|-------------------------|
G|-------------------------|-------------------------|
C|-------------------------|-------------------------|

...say?

   1   &   2   &   3   &     1   &   2   &   3   &    
D|-------------------------|-------------------------|
A|-------------------------|-------------------------|
F|-------------------------|-------------------------|
C|-0~----------------------|-0~----------------------|
G|-0~-----------0--0-------|-0~-----------0--0-------|---|
C|-0~-----------0--0-------|-0~-----------0--0-------|   |
                .  .                      .  .           |
LOOK                         AT                          |
                                                         |
   1   &   2   &   3   &     1   &   2   &   3   &       |
D|-------------------------|-------------------------|   |
A|-------------------------|-------------------------|   |
F|-------------------------|-------------------------|   |
C|-0~----------------------|-------------------------|   |
G|-0~-----------0--0-------|-------------------------|   |
C|-0~-----------0--0-------|-------------------------|   |
                .  .                                     |
ME                                                       | X2
                                                         |
   1   &   2   &   3   &     1   &   2   &   3   &       |
D|-------------------------|-------------------------|   |
A|-------------------------|-------------------------|   |
F|-------------------------|-------------------------|   |
C|-0~----------------------|-0~----------------------|   |
G|-0~-----------0--0-------|-0~-----------0--0-------|   |
C|-1~-----------1--0-------|-0~-----------0--0-------|   |
                .  .                      .  .           |
LOOK                         AT                          |
                                                         |
   1   &   2   &   3   &     1   &   2   &   3   &       |
D|-------------------------|-------------------------|   |
A|-------------------------|-------------------------|---|
F|-7~--(     3~             )3~----------------------|
C|-7~--(Play 3~ the 2nd time)3~----------------------|
G|-5~--(     1~             )1~----------------------|
C|-------------------------|-------------------------|

MEEEE

Guitar 2

   1   &   2   &   3   &     1   &   2   &   3   &    
D|-5~~~~~~~~~~~5~~~~~~~~~~~|~6~~~~~~~~~~~6~~~~~~~~~~~|
A|-----3~~~3~~~~~~~3~~~3~~~|~~~~~3~~~3~~~~~~~3~~~3~~~|
F|-------------------------|-------------------------|
C|-------------------------|-------------------------|
G|-------------------------|-------------------------|---|
C|-------------------------|-------------------------|   |
                                                         |
...say?                                                  |
                                                         |
   1   &   2   &   3   &     1   &   2   &   3   &       |
D|-5~~~~~~~~~~~5~~~~~~~~~~~|~3~~~~~~~~~~~3~~~~~~~~~~~|   |
A|-----3~~~3~~~~~~~3~~~3~~~|~~~~~3~~~3~~~~~~~3~~~3~~~|   |
F|-------------------------|-------------------------|   |
C|-------------------------|-------------------------|   |
G|-------------------------|-------------------------|   |
C|-------------------------|-------------------------|   |
                                                         |
...see what you're doing to...                           | x2
                                                         |
   1   &   2   &   3   &     1   &   2   &   3   &       |
D|-5~~~~~~~~~~~5~~~~~~~~~~~|~5~~~~~~~~~~~5~~~~~~~~~~~|   |
A|-----3~~~3~~~~~~~3~~~3~~~|~~~~~3~~~3~~~~~~~3~~~3~~~|   |
F|-------------------------|-------------------------|   |
C|-------------------------|-(Note the subtle note---|   |
G|-------------------------|---change from 3 to 5)---|   |
C|-------------------------|-------------------------|   |
                                                         |
...me?                                                   |
                                                         |
   1   &   2   &   3   &     1   &   2   &   3   &       |
D|-0~~~~~~~~~~~0~~~~~~~~~~~|~0~~~~~~~~~~~0~~~~~~~~~~~|   |
A|-----3~~~3~~~~~~~3~~~3~~~|~~~~~3~~~3~~~~~~~3~~~3~~~|---|
F|-------------------------|-------------------------|
C|-------------------------|-------------------------|
G|-------------------------|-------------------------|
C|-------------------------|-------------------------|

...breaking me down...

   1   &   2   &   3   &     1   &   2   &   3   &    
D|~5~~~~~~~~~~~5~~~~~~~~~~~|~6~~~~~~~~~~~6~~~~~~~~~~~|
A|~~~~~3~~~3~~~~~~~3~~~3~~~|~~~~~3~~~3~~~~~~~3~~~3~~~|
F|-------------------------|-------------------------|
C|-------------------------|-------------------------|
G|-------------------------|-------------------------|---|
C|-------------------------|-------------------------|   |
                                                         |
LOOK                         AT                          |
                                                         |
   1   &   2   &   3   &     1   &   2   &   3   &       |
D|~5~~~~~~~~~~~5~~~~~~~~~~~|~5~~~~~~~~~~~5~~~~~~~~~~~|   |
A|~~~~~3~~~3~~~~~~~3~~~3~~~|~~~~~3~~~3~~~~~~~3~~~3~~~|   |
F|-------------------------|-------------------------|   |
C|-------------------------|-(Note the subtle note---|   |
G|-------------------------|--change from 3 to 5)----|   |
C|-------------------------|-------------------------|   |
                                                         |
ME                                                       | x2
                                                         |
   1   &   2   &   3   &     1   &   2   &   3   &       |
D|~5~~~~~~~~~~~5~~~~~~~~~~~|~3~~~~~~~~~~~3~~~~~~~~~~~|   |
A|~~~~~3~~~3~~~~~~~3~~~3~~~|~~~~~3~~~3~~~~~~~3~~~3~~~|   |
F|-------------------------|-------------------------|   |
C|-------------------------|-------------------------|   |
G|-------------------------|-------------------------|   |
C|-------------------------|-------------------------|   |
                                                         |
LOOK                         AT                          |
                                                         |
   1   &   2   &   3   &     1   &   2   &   3   &       |
D|~0~~~~~~~~~~~0~~~~~~~~~~~|~0~~~~~~~~~~~0~~~~~~~~~~~|   |
A|~~~~~3~~~3~~~~~~~3~~~3~~~|~~~~~3~~~3~~~~~~~3~~~3~~~|---|
F|-------------------------|-------------------------|
C|-(Second time, don't play anything)----------------|
G|-------------------------|-------------------------|
C|-------------------------|-------------------------|

Guitar 3 (Clean)

Have you nothing to...

   1   &   2   &   3   &     1   &   2   &   3   &    
D|-------------------------|-------------------------|
A|-------------------------|-------------------------|
F|-------------------------|-------------------------| x3
C|-------------------------|-------------------------|
G|-------------------------|-------------------------|
C|-------------------------|-------------------------|

...say?

   1   &   2   &   3   &     1   &   2   &   3   &    
D|-------------------------|-------------------------|
A|-------------------------|-------------------------|
F|-9~~~~~~~~~~~~~~~~~~~~~~~|~10~~~~~~~~~~~~~~~~~~~~~~|
C|-------------------------|-------------------------|
G|-------------------------|-------------------------|
C|-------------------------|-------------------------|

...breaking me down...

   1   &   2   &   3   &     1   &   2   &   3   &    
D|-------------------------|-------------------------|
A|-------------------------|-------------------------|
F|-------------------------|-------------------------| x3
C|-------------------------|-------------------------|
G|-------------------------|-------------------------|
C|-------------------------|-------------------------|

...won't... let you get...

   1   &   2   &   3   &     1   &   2   &   3   &    
D|-------------------------|-------------------------|
A|-------------------------|-------------------------|
F|-9~~~~~~~~~~~~~~~~~~~~~~~|~7~~~~~~~~~~~~~~~~~~~~~~~|
C|-------------------------|-------------------------|
G|-------------------------|-------------------------|
C|-------------------------|-------------------------|

...take anymore.

Then rests for the rest of the verse






Chorus (0:57 - 1:16)

Guitar 1

   1   &   2   &   3   &     1   &   2   &   3   &    
D|-------------------------|-------------------------|
A|-------------------------|-------------------------|
F|-------------------------|-------------------------|
C|-0~----------------------|-(0)---------------------|
G|-0~----------------------|-(0)---------------------|
C|-0~----------------------|-(0)---------------------|

   You                       can

   1   &   2   &   3   &     1   &   2   &   3   &    
D|-------------------------|-------------------------|
A|-------------------------|-------------------------|
F|-2~----------------------|-(2)---------------------|
C|-2~----------------------|-(2)---------------------|
G|-0~----------------------|-(0)---------------------|
C|-------------------------|-------------------------|

   keep                      all your apologies.

   1   &   2   &   3   &     1   &   2   &   3   &    
D|-------------------------|-------------------------|
A|-------------------------|-------------------------|
F|-3~----------------------|-(3)---------------------|
C|-3~----------------------|-(3)---------------------|
G|-1~----------------------|-(1)---------------------|
C|-------------------------|-------------------------|
            
                             Those...

   1   &   2   &   3   &     1   &   2   &   3   &    
D|-------------------------|-------------------------|
A|-------------------------|-------------------------|
F|-3\--2-------------------|-3\--2-------------------|
C|-3\--2-------------------|-3\--2-------------------|
G|-1\--0---5---2---3---2---|-3\--0---5---2---3---2---|
C|---------5---2---3---2---|---------5---2---3---2---|
           .   .   .   .             .   .   .   .
...words are worthless to...

   1   &   2   &   3   &     1   &   2   &   3   &    
D|-------------------------|-------------------------|
A|-------------------------|-------------------------|
F|-------------------------|-------------------------|
C|-0~----------------------|-(0)---------------------|
G|-0~----------------------|-(0)---------------------|
C|-0~----------------------|-(0)---------------------|

...me!                       And I...

   1   &   2   &   3   &     1   &   2   &   3   &    
D|-------------------------|-------------------------|
A|-------------------------|-------------------------|
F|-2~----------------------|-(2)---------------------|
C|-2~----------------------|-(2)---------------------|
G|-0~----------------------|-(0)---------------------|
C|-------------------------|-------------------------|

...don't wanna               hear that you're...

   1   &   2   &   3   &     1   &   2   &   3   &    
D|-------------------------|-------------------------|
A|-------------------------|-------------------------|
F|-3~----------------------|-(3)---------------------|
C|-3~----------------------|-(3)---------------------|
G|-1~----------------------|-(1)---------------------|
C|-------------------------|-------------------------|

...sorry.                              Your...

   1   &   2   &   3   &     1   &   2   &   3   &    
D|-------------------------|-------------------------|
A|-------------------------|-------------------------|
F|-5~----------------------|-(5)---------------------|
C|-5~----------------------|-(5)---------------------|
G|-3~----------------------|-(3)---------------------|
C|-------------------------|-------------------------|

...words mean                nothing to...

   1   &   2   &   3   &     1   &   2   &   3   &    
D|-------------------------|-------------------------|
A|-------------------------|-------------------------|
F|-------------------------|-------------------------|
C|-0~----------------------|-0~----------------------|
G|-0~-----------0--0-------|-0~-----------0--0-------|
C|-0~-----------0--0-------|-0~-----------0--0-------|
                .  .                      .  .
...me.

   1   &   2   &   3   &     1   &   2   &   3   &    
D|-------------------------|-------------------------|
A|-------------------------|-------------------------|
F|-------------------------|-------------------------|
C|-0~----------------------|-------------------------|
G|-0~-----------0--0~------|-------------------------|
C|-0~-----------0--0~------|-------------------------|
                .  .
                 Has this opened your...

Guitar 2

   1   &   2   &   3   &     1   &   2   &   3   &    
D|-------------------------|-------------------------|
A|-------------------------|-------------------------|
F|-10--10--10--10--10--10--|-10--10--10--10--10--10--|
C|-x---x---x---x---x---x---|-x---x---x---x---x---x---|
G|-8---8---8---8---8---8---|-8---8---8---8---8---8---|
C|-------------------------|-------------------------|

   You                       can

   1   &   2   &   3   &     1   &   2   &   3   &    
D|-------------------------|-------------------------|
A|-------------------------|-------------------------|
F|-9---9---9---9---9---9---|-9---9---9---9---9---9---|
C|-x---x---x---x---x---x---|-x---x---x---x---x---x---|
G|-7---7---7---7---7---7---|-7---7---7---7---7---7---|
C|-------------------------|-------------------------|

   keep                      all your apologies.

   1   &   2   &   3   &     1   &   2   &   3   &    
D|-------------------------|-------------------------|
A|-------------------------|-------------------------|
F|-7---7---7---7---7---7---|-10--10--10--10--10--10--|
C|-x---x---x---x---x---x---|-x---x---x---x---x---x---|
G|-5---5---5---5---5---5---|-8---8---8---8---8---8---|
C|-------------------------|-------------------------|

                             Those...

   1   &   2   &   3   &     1   &   2   &   3   &    
D|-------------------------|-------------------------|
A|-------------------------|-------------------------|
F|-3\--2-------------------|-3\--2-------------------|
C|-3\--2-------------------|-3\--2-------------------|
G|-1\--0---5---2---3---2---|-3\--0---5---2---3---2---|
C|---------5---2---3---2---|---------5---2---3---2---|
           .   .   .   .             .   .   .   .
...words are                 worthless to...

   1   &   2   &   3   &     1   &   2   &   3   &    
D|-------------------------|-------------------------|
A|-------------------------|-------------------------|
F|-10--10--10--10--10--10--|-10--10--10--10--10--10--|
C|-x---x---x---x---x---x---|-x---x---x---x---x---x---|
G|-8---8---8---8---8---8---|-8---8---8---8---8---8---|
C|-------------------------|-------------------------|

...me!                       And I...

   1   &   2   &   3   &     1   &   2   &   3   &    
D|-------------------------|-------------------------|
A|-------------------------|-------------------------|
F|-9---9---9---9---9---9---|-12--12--12--12--12--12--|
C|-x---x---x---x---x---x---|-x---x---x---x---x---x---|
G|-7---7---7---7---7---7---|-10--10--10--10--10--10--|
C|-------------------------|-------------------------|

...don't wanna               hear that you're...

   1   &   2   &   3   &     1   &   2   &   3   &    
D|-------------------------|-------------------------|
A|-------------------------|-------------------------|
F|-7---7---7---7---7---7---|-9---9---9---9---9---9---|
C|-x---x---x---x---x---x---|-x---x---x---x---x---x---|
G|-5---5---5---5---5---5---|-7---7---7---7---7---7---|
C|-------------------------|-------------------------|

...sorry.                               Your...

   1   &   2   &   3   &     1   &   2   &   3   &    
D|-------------------------|-------------------------|
A|-------------------------|-------------------------|
F|-10--10--10--10--10--10--|-9---9---9---9---9---9---|
C|-x---x---x---x---x---x---|-x---x---x---x---x---x---|
G|-8---8---8---8---8---8---|-7---7---7---7---7---7---|
C|-------------------------|-------------------------|

...words mean                nothing to...

   1   &   2   &   3   &     1   &   2   &   3   &    
D|-------------------------|-------------------------|
A|-------------------------|-------------------------|
F|-------------------------|-------------------------|
C|-0~----------------------|-0~----------------------|
G|-0~-----------0--0-------|-0~-----------0--0-------|
C|-0~-----------0--0-------|-0~-----------0--0-------|
                .  .                      .  .
...me.

   1   &   2   &   3   &     1   &   2   &   3   &    
D|-------------------------|-------------------------|
A|-------------------------|-------------------------|
F|-------------------------|-------------------------|
C|-0~----------------------|-------------------------|
G|-0~-----------0--0~------|-------------------------|
C|-0~-----------0--0~------|-------------------------|
                .  .
                 Has this opened your...




Verse 2 (1:16 - 1:48)

Guitar 1

   1   &   2   &   3   &     1   &   2   &   3   &    
D|-------------------------|-------------------------|
A|-------------------------|-------------------------|
F|-------------------------|-------------------------| x8
C|-------------------------|-------------------------|
G|-------------------------|-------------------------|
C|-------------------------|-------------------------|

...eyes?!

   1   &   2   &   3   &     1   &   2   &   3   &    
D|-------------------------|-------------------------|
A|-------------------------|-------------------------|
F|-------------------------|-------------------------|
C|-0~----------------------|-0~----------------------|
G|-0~-----------0--0-------|-0~-----------0--0-------|---|
C|-0~-----------0--0-------|-0~-----------0--0-------|   |
                .  .                      .  .           |
LOOK                         AT                          | x2
                                                         |
   1   &   2   &   3   &     1   &   2   &   3   &       |
D|-------------------------|-------------------------|   |
A|-------------------------|-------------------------|---|
F|-------------------------|-------------------------|
C|-0~----------------------|-------------------------|
G|-0~-----------0--0-------|-------------------------|
C|-0~-----------0--0-------|-8---7---5---0---3---0---|
                .  .         .   .   .   .   .   .
ME!

   1   &   2   &   3   &     1   &   2   &   3   &    
D|-------------------------|-------------------------|
A|-------------------------|-------------------------|
F|-------------------------|-------------------------|
C|-----------------7---8---|---------8---7-----------|
G|-------------5-----------|-----------------5-------|
C|-0---0---0---------------|-0---0---------------8---|
   .   .   .                 .   .
One more                     word and I'm...

   1   &   2   &   3   &     1   &   2   &   3   &    
D|-------------------------|-------------------------|
A|-------------------------|-------------------------|
F|-------------------------|-------------------------|
C|-------------------------|-----------------3p--0---|
G|-------------------------|-------------------------|
C|-0---0-0-0---0---0---0---|-8---7---5---0-----------|
   .   . . .   .   .   .     .   .   .   .
...taking this all...

   1   &   2   &   3   &     1   &   2   &   3   &    
D|-------------------------|-------------------------|
A|-------------------------|-------------------------|
F|-------------------------|-------------------------|
C|-----------------7---8---|---------8---7-----------|
G|-------------5-----------|-----------------5-------|
C|-0---0---0---------------|-0---0---------------8---|
   .   .   .                 .   .
...away!                             I can't...

   1   &   2   &   3   &     1   &   2   &   3   &    
D|-------------------------|-------------------------|
A|-------------------------|-------------------------|
F|-------------------------|-------------------------|
C|-8~----------------------|-10~---------------------|
G|-8~----------------------|-10~---------------------|
C|-8~----------------------|-10~---------------------|

...take anymore!

Guitar 2

   1   &   2   &   3   &     1   &   2   &   3   &    
D|-------------------------|-------------------------|
A|-------------------------|-------------------------|
F|-------------------------|-------------------------|
C|-----------------7---8---|---------8---7-----------|
G|-------------5-----------|-----------------5-------|
C|-0---0---0---------------|-0---0---------------8---|
   .   .   .                 .   .
...eyes?!                            It was...

   1   &   2   &   3   &     1   &   2   &   3   &    
D|-------------------------|-------------------------|
A|-------------------------|-------------------------|
F|-------------------------|-------------------------|
C|-------------------------|-----------------3p--0---|
G|-------------------------|-------------------------|
C|-0---0-0-0---0---0---0---|-8---7---5---0-----------|
   .   . . .   .   .   .     .   .   .   .
...only a matter of...

   1   &   2   &   3   &     1   &   2   &   3   &    
D|-------------------------|-------------------------|
A|-------------------------|-------------------------|
F|-------------------------|-------------------------|
C|-----------------7---8---|---------8---7-----------|
G|-------------5-----------|-----------------5-------|
C|-0---0---0---------------|-0---0---------------8---|
   .   .   .                 .   .
...time.                                I can...

   1   &   2   &   3   &     1   &   2   &   3   &    
D|-------------------------|-------------------------|
A|-------------------------|-------------------------|
F|-------------------------|-------------------------|
C|-------------------------|-------------------------|
G|-------------------------|-------------------------|
C|-0---0-0-0---0---0---0---|-8---7---5---0---3p--0---|
   .   . . .   .   .   .     .   .   .   .
...tell by that              look on your

   1   &   2   &   3   &     1   &   2   &   3   &    
D|-------------------------|-------------------------|
A|-------------------------|-------------------------|
F|-------------------------|-------------------------|
C|-----------------7---8---|---------8---7-----------|
G|-------------5-----------|-----------------5-------|
C|-0---0---0---------------|-0---0---------------8---|
   .   .   .                 .   .
...face.                       That you...

   1   &   2   &   3   &     1   &   2   &   3   &    
D|-------------------------|-------------------------|
A|-------------------------|-------------------------|
F|-------------------------|-------------------------|
C|-------------------------|-----------------3p--0---|
G|-------------------------|-------------------------|
C|-0---0-0-0---0---0---0---|-8---7---5---0-----------|
   .   . . .   .   .   .     .   .   .   .
...know the                  tables have

   1   &   2   &   3   &     1   &   2   &   3   &    
D|-------------------------|-------------------------|
A|-------------------------|-------------------------|
F|-------------------------|-------------------------|
C|-----------------7---8---|---------8---7-----------|
G|-------------5-----------|-----------------5-------|
C|-0---0---0---------------|-0---0---------------8---|
   .   .   .                 .   .
...turned                            No one's...

   1   &   2   &   3   &     1   &   2   &   3   &    
D|-------------------------|-------------------------|
A|-------------------------|-------------------------|
F|-------------------------|-------------------------|
C|-8~----------------------|-10~---------------------|
G|-8~----------------------|-10~---------------------|
C|-8~----------------------|-10~---------------------|

...fault but your own!

   1   &   2   &   3   &     1   &   2   &   3   &    
D|-------------------------|-------------------------|
A|-------------------------|-------------------------|
F|-------------------------|-------------------------|
C|-----------------7---8---|---------8---7-----------|
G|-------------5-----------|-----------------5-------|
C|-0---0---0---------------|-0---0---------------8---|
   .   .   .                 .   .
   LOOK                      AT

   1   &   2   &   3   &     1   &   2   &   3   &    
D|-------------------------|-------------------------|
A|-------------------------|-------------------------|
F|-(Note, no triplet here)-|-------------------------|
C|-------------------------|-----------------3p--0---|
G|-------------------------|-------------------------|
C|-0---0---0---0---0---0---|-8---7---5---0-----------|
   .   .   .   .   .   .     .   .   .   .
   ME

   1   &   2   &   3   &     1   &   2   &   3   &    
D|-------------------------|-------------------------|
A|-------------------------|-------------------------|
F|-------------------------|-------------------------|
C|-----------------7---8---|---------8---7-----------|
G|-------------5-----------|-----------------5-------|
C|-0---0---0---------------|-0---0---------------8---|
   .   .   .                 .   .
   LOOK                      AT

   1   &   2   &   3   &     1   &   2   &   3   &    
D|-------------------------|-------------------------|
A|-------------------------|-------------------------|
F|-(Note, no triplet here)-|-------------------------|
C|-------------------------|-------------------------|
G|-------------------------|-------------------------|
C|-0---0---0---0---0---0---|-8---7---5---0---3---0---|
   .   .   .   .   .   .     .   .   .   .   .   .
   MEEEE!

   1   &   2   &   3   &     1   &   2   &   3   &    
D|-------------------------|-------------------------|
A|-------------------------|-------------------------|
F|-------------------------|-------------------------|
C|-----------------7---8---|---------8---7-----------|
G|-------------5-----------|-----------------5-------|
C|-0---0---0---------------|-0---0---------------8---|
   .   .   .                 .   .
One more                     word and I'm...

   1   &   2   &   3   &     1   &   2   &   3   &    
D|-------------------------|-------------------------|
A|-------------------------|-------------------------|
F|--(Triplet's back!)------|-------------------------|
C|-------------------------|-----------------3p--0---|
G|-------------------------|-------------------------|
C|-0---0-0-0---0---0---0---|-8---7---5---0-----------|
   .   . . .   .   .   .     .   .   .   .
...taking this all...

   1   &   2   &   3   &     1   &   2   &   3   &    
D|-------------------------|-------------------------|
A|-------------------------|-------------------------|
F|-------------------------|-------------------------|
C|-----------------7---8---|---------8---7-----------|
G|-------------5-----------|-----------------5-------|
C|-0---0---0---------------|-0---0---------------8---|
   .   .   .                 .   .
...away!                             I can't...

   1   &   2   &   3   &     1   &   2   &   3   &    
D|-------------------------|-------------------------|
A|-------------------------|-------------------------|
F|-------------------------|-------------------------|
C|-8~----------------------|-10~---------------------|
G|-8~----------------------|-10~---------------------|
C|-8~----------------------|-10~---------------------|

...take anymore!





Chorus 2 (1:48 - 2:12)

Guitar 1

   1   &   2   &   3   &     1   &   2   &   3   &    
D|-------------------------|-------------------------|
A|-------------------------|-------------------------|
F|-------------------------|-------------------------|
C|-0~----------------------|-(0)---------------------|
G|-0~----------------------|-(0)---------------------|
C|-0~----------------------|-(0)---------------------|

   You                       can

   1   &   2   &   3   &     1   &   2   &   3   &    
D|-------------------------|-------------------------|
A|-------------------------|-------------------------|
F|-2~----------------------|-(2)---------------------|
C|-2~----------------------|-(2)---------------------|
G|-0~----------------------|-(0)---------------------|
C|-------------------------|-------------------------|

   keep                      all your apologies.

   1   &   2   &   3   &     1   &   2   &   3   &    
D|-------------------------|-------------------------|
A|-------------------------|-------------------------|
F|-3~----------------------|-(3)---------------------|
C|-3~----------------------|-(3)---------------------|
G|-1~----------------------|-(1)---------------------|
C|-------------------------|-------------------------|
            
                             Those...

   1   &   2   &   3   &     1   &   2   &   3   &    
D|-------------------------|-------------------------|
A|-------------------------|-------------------------|
F|-3\--2-------------------|-3\--2-------------------|
C|-3\--2-------------------|-3\--2-------------------|
G|-1\--0---5---2---3---2---|-3\--0---5---2---3---2---|
C|---------5---2---3---2---|---------5---2---3---2---|
           .   .   .   .             .   .   .   .
...words are worthless to...

   1   &   2   &   3   &     1   &   2   &   3   &    
D|-------------------------|-------------------------|
A|-------------------------|-------------------------|
F|-------------------------|-------------------------|
C|-0~----------------------|-(0)---------------------|
G|-0~----------------------|-(0)---------------------|
C|-0~----------------------|-(0)---------------------|

...me!                       And I...

   1   &   2   &   3   &     1   &   2   &   3   &    
D|-------------------------|-------------------------|
A|-------------------------|-------------------------|
F|-2~----------------------|-(2)---------------------|
C|-2~----------------------|-(2)---------------------|
G|-0~----------------------|-(0)---------------------|
C|-------------------------|-------------------------|

...don't wanna               hear that you're...

   1   &   2   &   3   &     1   &   2   &   3   &    
D|-------------------------|-------------------------|
A|-------------------------|-------------------------|
F|-3~----------------------|-(3)---------------------|
C|-3~----------------------|-(3)---------------------|
G|-1~----------------------|-(1)---------------------|
C|-------------------------|-------------------------|

...sorry.                              Your...

   1   &   2   &   3   &     1   &   2   &   3   &    
D|-------------------------|-------------------------|
A|-------------------------|-------------------------|
F|-5~----------------------|-(5)---------------------|
C|-5~----------------------|-(5)---------------------|
G|-3~----------------------|-(3)---------------------|
C|-------------------------|-------------------------|

...words mean                nothing to...

   1   &   2   &   3   &     1   &   2   &   3   &    
D|-------------------------|-------------------------|
A|-------------------------|-------------------------|
F|-------------------------|-------------------------|
C|-5~----------------------|-(5)---------------------|
G|-5~----------------------|-(5)---------------------|
C|-5~----------------------|-(5)---------------------|

...me.                       No, I...

   1   &   2   &   3   &     1   &   2   &   3   &    
D|-------------------------|-------------------------|
A|-------------------------|-------------------------|
F|-------------------------|-------------------------|
C|-5~----------------------|-(5)---------------------|
G|-5~----------------------|-(5)-----3-------5-------|
C|-5~----------------------|-(5)-----3-------5-------|
                                     .       .
...don't wanna               hear that you're...

   1   &   2   &   3   &     1   &   2   &   3   &    
D|-------------------------|-------------------------|
A|-------------------------|-------------------------|
F|-------------------------|-------------------------|
C|-7~----------------------|-(7)---------------------|
G|-7~----------------------|-(7)---------------------|
C|-7~----------------------|-(7)---------------------|

...sorry.                                     Your...

   1   &   2   &   3   &     1   &   2   &   3   &    
D|-------------------------|-------------------------|
A|-------------------------|-------------------------|
F|-------------------------|-------------------------|
C|-7~----------------------|-------------------------|
G|-7~----------------------|-7---7---7---7---7---7---|
C|-7~----------------------|-7---7---7---7---7---7---|
                             .   .   .   .   .   .
...words are                 worthless to...

Guitar 2

   1   &   2   &   3   &     1   &   2   &   3   &    
D|-------------------------|-------------------------|
A|-------------------------|-------------------------|
F|-10--10--10--10--10--10--|-10--10--10--10--10--10--|
C|-x---x---x---x---x---x---|-x---x---x---x---x---x---|
G|-8---8---8---8---8---8---|-8---8---8---8---8---8---|
C|-------------------------|-------------------------|

   You                       can

   1   &   2   &   3   &     1   &   2   &   3   &    
D|-------------------------|-------------------------|
A|-------------------------|-------------------------|
F|-9---9---9---9---9---9---|-9---9---9---9---9---9---|
C|-x---x---x---x---x---x---|-x---x---x---x---x---x---|
G|-7---7---7---7---7---7---|-7---7---7---7---7---7---|
C|-------------------------|-------------------------|

   keep                      all your apologies.

   1   &   2   &   3   &     1   &   2   &   3   &    
D|-------------------------|-------------------------|
A|-------------------------|-------------------------|
F|-7---7---7---7---7---7---|-10--10--10--10--10--10--|
C|-x---x---x---x---x---x---|-x---x---x---x---x---x---|
G|-5---5---5---5---5---5---|-8---8---8---8---8---8---|
C|-------------------------|-------------------------|

                             Those...

   1   &   2   &   3   &     1   &   2   &   3   &    
D|-------------------------|-------------------------|
A|-------------------------|-------------------------|
F|-3\--2-------------------|-3\--2-------------------|
C|-3\--2-------------------|-3\--2-------------------|
G|-1\--0---5---2---3---2---|-3\--0---5---2---3---2---|
C|---------5---2---3---2---|---------5---2---3---2---|
           .   .   .   .             .   .   .   .
...words are                 worthless to...

   1   &   2   &   3   &     1   &   2   &   3   &    
D|-------------------------|-------------------------|
A|-------------------------|-------------------------|
F|-10--10--10--10--10--10--|-10--10--10--10--10--10--|
C|-x---x---x---x---x---x---|-x---x---x---x---x---x---|
G|-8---8---8---8---8---8---|-8---8---8---8---8---8---|
C|-------------------------|-------------------------|

...me!                       And I...

   1   &   2   &   3   &     1   &   2   &   3   &    
D|-------------------------|-------------------------|
A|-------------------------|-------------------------|
F|-9---9---9---9---9---9---|-12--12--12--12--12--12--|
C|-x---x---x---x---x---x---|-x---x---x---x---x---x---|
G|-7---7---7---7---7---7---|-10--10--10--10--10--10--|
C|-------------------------|-------------------------|

...don't wanna               hear that you're...

   1   &   2   &   3   &     1   &   2   &   3   &    
D|-------------------------|-------------------------|
A|-------------------------|-------------------------|
F|-7---7---7---7---7---7---|-9---9---9---9---9---9---|
C|-x---x---x---x---x---x---|-x---x---x---x---x---x---|
G|-5---5---5---5---5---5---|-7---7---7---7---7---7---|
C|-------------------------|-------------------------|

...sorry.                               Your...

   1   &   2   &   3   &     1   &   2   &   3   &    
D|-------------------------|-------------------------|
A|-------------------------|-------------------------|
F|-10--10--10--10--10--10--|-9---9---9---9---9---9---|
C|-x---x---x---x---x---x---|-x---x---x---x---x---x---|
G|-8---8---8---8---8---8---|-7---7---7---7---7---7---|
C|-------------------------|-------------------------|

...words mean                nothing to...

   1   &   2   &   3   &     1   &   2   &   3   &    
D|-------------------------|-------------------------|
A|-------------------------|-------------------------|
F|-7---7---7---7---7---7---|-7---7---7---7---7---7---|
C|-x---x---x---x---x---x---|-x---x---x---x---x---x---|
G|-5---5---5---5---5---5---|-5---5---5---5---5---5---|
C|-------------------------|-------------------------|

...me.                              No I...

   1   &   2   &   3   &     1   &   2   &   3   &    
D|-------------------------|-------------------------|
A|-------------------------|-------------------------|
F|-9---9---9---9---9---9---|-10--10--10--10--10--10--|
C|-x---x---x---x---x---x---|-x---x---x---x---x---x---|
G|-7---7---7---7---7---7---|-8---8---8---8---8---8---|
C|-------------------------|-------------------------|

...don't wanna               hear that you're

   1   &   2   &   3   &     1   &   2   &   3   &    
D|-------------------------|-------------------------|
A|-------------------------|-------------------------|
F|-9---9---9---9---9---9---|-7---7---7---7---7---7---|
C|-x---x---x---x---x---x---|-x---x---x---x---x---x---|
G|-7---7---7---7---7---7---|-5---5---5---5---5---5---|
C|-------------------------|-------------------------|

sorry.                                 Your words...

   1   &   2   &   3   &     1   &   2   &   3   &    
D|-------------------------|-------------------------|
A|-------------------------|-------------------------|
F|-6---6---6---6---6---6---|-9---9---9---9---9---9---|
C|-x---x---x---x---x---x---|-x---x---x---x---x---x---|
G|-4---4---4---4---4---4---|-7---7---7---7---7---7---|
C|-------------------------|-------------------------|

...are                       worthless to...


Bridge (2:12 - 2:28)

Guitar 1 doesn't play anything

Guitar 2

   1   &   2   &   3   &     1   &   2   &   3   &    
D|-------------------------|-------------------------|
A|-------------------------|-------------------------|
F|-------------------------|-------------------------| x4
C|-------------------------|-------------------------|
G|-------------------------|-------------------------|
C|-------------------------|-------------------------|

...me.
(aaaaaaaaaaaaaaaaaaaaaaaaaa  aaaaaaaaaaaaaaaaaaa...)

   1   &   2   &   3   &     1   &   2   &   3   &    
D|-5~~~~~~~~~~~5~~~~~~~~~~~|~6~~~~~~~~~~~6~~~~~~~~~~~|
A|-----3~~~3~~~~~~~3~~~3~~~|~~~~~3~~~3~~~~~~~3~~~3~~~|
F|-------------------------|-------------------------|
C|-------------------------|-------------------------|
G|-------------------------|-------------------------|
C|-------------------------|-------------------------|

   1   &   2   &   3   &     1   &   2   &   3   &    
D|~5~~~~~~~~~~~5~~~~~~~~~~~|~3~~~~~~~~~~~3~~~~~~~~~~~|
A|~~~~~3~~~3~~~~~~~3~~~3~~~|~~~~~3~~~3~~~~~~~3~~~3~~~|
F|-------------------------|-------------------------|
C|-------------------------|-------------------------|
G|-------------------------|-------------------------|
C|-------------------------|-------------------------|

   1   &   2   &   3   &     1   &   2   &   3   &    
D|~5~~~~~~~~~~~5~~~~~~~~~~~|~3~~~~~~~~~~~3~~~~~~~~~~~|
A|~~~~~3~~~3~~~~~~~3~~~3~~~|~~~~~3~~~3~~~~~~~3~~~3~~~|
F|-------------------------|-------------------------|
C|-------------------------|-------------------------|
G|-------------------------|-------------------------|
C|-------------------------|-------------------------|

   1   &   2   &   3   &     1   &   2   &   3   &    
D|~0~~~~~~~~~~~0~~~~~~~~~~~|~0~~~~~~~~~~~0~~~~~~~~~~~|
A|~~~~~3~~~3~~~~~~~3~~~3~~~|~~~~~3~~~3~~~~~~~3~~~3~~~|
F|-------------------------|-------------------------|
C|-------------------------|-------------------------|
G|-------------------------|-------------------------|
C|-------------------------|-------------------------|




Pre-Chorus (2:28 - 2:35)

Guitar 1 and 2 don't play anything until the last two bars

Guitar 3

   1   &   2   &   3   &     1   &   2   &   3   &    
D|-1~~~~~~~~~~~1~~~~~~~~~~~|~1~~~~~~~~~~~1~~~~~~~0~~~|
A|-----3~~~3~~~~~~~3~~~3~~~|~~~~~3~~~3~~~~~~~3~~~~~~~|
F|-------------------------|-------------------------|
C|-------------------------|-------------------------|
G|-------------------------|-------------------------|
C|-------------------------|-------------------------|

You                          can

   1   &   2   &   3   &     1   &   2   &   3   &    
D|~~~~~~~~~~~~~0~~~~~~~~~~~|~0~~~~~~~~~~~0~~~~~~~~~~~|
A|~~~~~~~~~3~~~~~~~3~~~3~~~|~~~~~3~~~3~~~~~~~3~~~3~~~|
F|-------------------------|-------------------------|
C|-------------------------|-------------------------|
G|-------------------------|-------------------------|
C|-------------------------|-------------------------|

keep                         all your apologies.

   1   &   2   &   3   &     1   &   2   &   3   &    
D|-----------------0~~~~~~~|~~~~~~~~~~~~~~~~~~~~~~~~~|
A|---------3~~~~~~~~~~~~~~~|~3~~~~~~~~~~~~~~~~~~~~~~~|
F|------2~~~~~~~2~~~~~~~2~~|~~~~~~~~~~~~~~~~~~~~~~~~~|
C|-0~~~~~~~~~~~~~~~~~~~~~~~|~~~~~~~~~~~~~~~~~~~~~~~~~|
G|-------------------------|-------------------------|
C|-------------------------|-------------------------|
                             
                             LISTEN TO MEEEEEE!
Guitar 1 and 2 (last two bars)

   1   &   2   &   3   &     1   &   2   &   3   &    
D|-------------------------|-------------------------|
A|-------------------------|-------------------------|
F|-3\--2-------------------|-3\--2-------------------|
C|-3\--2-------------------|-3\--2-------------------|
G|-1\--0---5---2---3---2---|-3\--0---5---2---3---2---|
C|---------5---2---3---2---|---------5---2---3---2---|
           .   .   .   .             .   .   .   .
LISTEN TO MEEEEEE!




Chorus 3 (2:35 - 3:07)

Guitar 1

   1   &   2   &   3   &     1   &   2   &   3   &    
D|-------------------------|-------------------------|
A|-------------------------|-------------------------|
F|-------------------------|-------------------------|
C|-0~----------------------|-(0)---------------------|
G|-0~----------------------|-(0)---------------------|---|
C|-0~----------------------|-(0)---------------------|   |
                                                         |
   You                       can                         |
                                                         |
   1   &   2   &   3   &     1   &   2   &   3   &       |
D|-------------------------|-------------------------|   |
A|-------------------------|-------------------------|   |
F|-2~----------------------|-(2)---------------------|   |
C|-2~----------------------|-(2)---------------------|   |
G|-0~----------------------|-(0)---------------------|   |
C|-------------------------|-------------------------|   |
                                                         |
   keep                      all your apologies.         |
                                                         |
   1   &   2   &   3   &     1   &   2   &   3   &       |
D|-------------------------|-------------------------|   |
A|-------------------------|-------------------------|   |
F|-3~----------------------|-(3)---------------------|   |
C|-3~----------------------|-(3)---------------------|   |
G|-1~----------------------|-(1)---------------------|   |
C|-------------------------|-------------------------|   |
                                                         |
                             Those...                    |
                                                         |
   1   &   2   &   3   &     1   &   2   &   3   &       |
D|-------------------------|-------------------------|   |
A|-------------------------|-------------------------|   |
F|-3\--2-------------------|-3\--2-------------------|   |
C|-3\--2-------------------|-3\--2-------------------|   |
G|-1\--0---5---2---3---2---|-3\--0---5---2---3---2---|   |
C|---------5---2---3---2---|---------5---2---3---2---|   |
           .   .   .   .             .   .   .   .       |
...words are worthless to...                             | x2
                                                         |
   1   &   2   &   3   &     1   &   2   &   3   &       |
D|-------------------------|-------------------------|   |
A|-------------------------|-------------------------|   |
F|-------------------------|-------------------------|   |
C|-0~----------------------|-(0)---------------------|   |
G|-0~----------------------|-(0)---------------------|   |
C|-0~----------------------|-(0)---------------------|   |
                                                         |
...me!                       And I...                    |
                                                         |
   1   &   2   &   3   &     1   &   2   &   3   &       |
D|-------------------------|-------------------------|   |
A|-------------------------|-------------------------|   |
F|-2~----------------------|-(2)---------------------|   |
C|-2~----------------------|-(2)---------------------|   |
G|-0~----------------------|-(0)---------------------|   |
C|-------------------------|-------------------------|   |
                                                         |
...don't wanna               hear that you're...         |
                                                         |
   1   &   2   &   3   &     1   &   2   &   3   &       |
D|-------------------------|-------------------------|   |
A|-------------------------|-------------------------|   |
F|-3~----------------------|-(3)---------------------|   |
C|-3~----------------------|-(3)---------------------|   |
G|-1~----------------------|-(1)---------------------|   |
C|-------------------------|-------------------------|   |
                                                         |
...sorry.                              Your...           |
                                                         |
   1   &   2   &   3   &     1   &   2   &   3   &       |
D|-------------------------|-------------------------|   |
A|-------------------------|-------------------------|---|
F|-5~----------------------|-(5)---------------------|
C|-5~----------------------|-(5)---------------------|
G|-3~----------------------|-(3)---------------------|
C|-------------------------|-------------------------|

...words mean                nothing to...

Guitar 2

   1   &   2   &   3   &     1   &   2   &   3   &    
D|-------------------------|-------------------------|
A|-------------------------|-------------------------|
F|-10--10--10--10--10--10--|-10--10--10--10--10--10--|
C|-x---x---x---x---x---x---|-x---x---x---x---x---x---|
G|-8---8---8---8---8---8---|-8---8---8---8---8---8---|---|
C|-------------------------|-------------------------|   |
                                                         |
   You                       can                         |
                                                         |
   1   &   2   &   3   &     1   &   2   &   3   &       |
D|-------------------------|-------------------------|   |
A|-------------------------|-------------------------|   |
F|-9---9---9---9---9---9---|-9---9---9---9---9---9---|   |
C|-x---x---x---x---x---x---|-x---x---x---x---x---x---|   |
G|-7---7---7---7---7---7---|-7---7---7---7---7---7---|   |
C|-------------------------|-------------------------|   |
                                                         |
   keep                      all your apologies.         |
                                                         |
   1   &   2   &   3   &     1   &   2   &   3   &       |
D|-------------------------|-------------------------|   |
A|-------------------------|-------------------------|   |
F|-7---7---7---7---7---7---|-10--10--10--10--10--10--|   |
C|-x---x---x---x---x---x---|-x---x---x---x---x---x---|   |
G|-5---5---5---5---5---5---|-8---8---8---8---8---8---|   |
C|-------------------------|-------------------------|   |
                                                         |
                             Those...                    |
                                                         |
   1   &   2   &   3   &     1   &   2   &   3   &       |
D|-------------------------|-------------------------|   |
A|-------------------------|-------------------------|   |
F|-3\--2-------------------|-3\--2-------------------|   |
C|-3\--2-------------------|-3\--2-------------------|   |
G|-1\--0---5---2---3---2---|-3\--0---5---2---3---2---|   |
C|---------5---2---3---2---|---------5---2---3---2---|   |
           .   .   .   .             .   .   .   .       |
...words are                 worthless to...             | x2
                                                         |
   1   &   2   &   3   &     1   &   2   &   3   &       |
D|-------------------------|-------------------------|   |
A|-------------------------|-------------------------|   |
F|-10--10--10--10--10--10--|-10--10--10--10--10--10--|   |
C|-x---x---x---x---x---x---|-x---x---x---x---x---x---|   |
G|-8---8---8---8---8---8---|-8---8---8---8---8---8---|   |
C|-------------------------|-------------------------|   |
                                                         |
...me!                       And I...                    |
                                                         |
   1   &   2   &   3   &     1   &   2   &   3   &       |
D|-------------------------|-------------------------|   |
A|-------------------------|-------------------------|   |
F|-9---9---9---9---9---9---|-12--12--12--12--12--12--|   |
C|-x---x---x---x---x---x---|-x---x---x---x---x---x---|   |
G|-7---7---7---7---7---7---|-10--10--10--10--10--10--|   |
C|-------------------------|-------------------------|   |
                                                         |
...don't wanna               hear that you're...         |
                                                         |
   1   &   2   &   3   &     1   &   2   &   3   &       |
D|-------------------------|-------------------------|   |
A|-------------------------|-------------------------|   |
F|-7---7---7---7---7---7---|-9---9---9---9---9---9---|   |
C|-x---x---x---x---x---x---|-x---x---x---x---x---x---|   |
G|-5---5---5---5---5---5---|-7---7---7---7---7---7---|   |
C|-------------------------|-------------------------|   |
                                                         |
...sorry.                               Your...          |
                                                         |
   1   &   2   &   3   &     1   &   2   &   3   &       |
D|-------------------------|-------------------------|   |
A|-------------------------|-------------------------|---|
F|-10--10--10--10--10--10--|-9---9---9---9---9---9---|   
C|-x---x---x---x---x---x---|-x---x---x---x---x---x---|   
G|-8---8---8---8---8---8---|-7---7---7---7---7---7---|   
C|-------------------------|-------------------------|   
                                                         
...words mean                nothing to...               
                                                         



Outro (3:01 - 3:18)

Guitar 1

   1   &   2   &   3   &     1   &   2   &   3   &    
D|-------------------------|-------------------------|
A|-------------------------|-------------------------|
F|-------------------------|-------------------------|
C|-0~-------------0--------|-0~-------------0--------|
G|-0~-------------0--------|-0~-------------0--------|---|
C|-0~-------------0--------|-0~-------------0--------|   |
                                                         | x2
   1   &   2   &   3   &     1   &   2   &   3   &       |
D|-------------------------|-------------------------|   |
A|-------------------------|-------------------------|---|
F|-------------------------|-------------------------|
C|-0~-------------0--------|-------------------------|
G|-0~-------------0--------|-------------------------|
C|-0~-------------0--------|-------------------------|

Guitar 2

   1   &   2   &   3   &     1   &   2   &   3   &    
D|-------------------------|-------------------------|
A|-------------------------|-------------------------|
F|-------------------------|-------------------------|
C|-10--0---0---7---0---10--|-8---0---0---5---0---8---|
G|-------------------------|-------------------------|
C|-------------------------|-------------------------|
   .   .   .   .   .   .     .   .   .   .   .   .

   1   &   2   &   3   &     1   &   2   &   3   &    
D|-------------------------|-------------------------|
A|-------------------------|-------------------------|
F|-------------------------|-------------------------|
C|-7---0---0---3---0---7---|-5p--0---3p--0---2p--0---|
G|-------------------------|-------------------------|
C|-------------------------|-------------------------|
   .   .   .   .   .   .

   1   &   2   &   3   &     1   &   2   &   3   &    
D|-------------------------|-------------------------|
A|-------------------------|-------------------------|
F|-------------------------|-------------------------|
C|-0~-------------0--------|-0~-------------0--------|
G|-0~-------------0--------|-0~-------------0--------|
C|-0~-------------0--------|-0~-------------0--------|

   1   &   2   &   3   &     
D|-------------------------|
A|-------------------------|
F|-------------------------|
C|-0~-------------0--------|
G|-0~-------------0--------|
C|-0~-------------0--------|


************************************

| .   palm mute
| /   slide up
| \   slide down
| h   hammer-on
| p   pull-off
| ~   vibrato/let ring
| +   harp harmonic
| *   pinch harmonic
| x   Mute note
| b   Bend
| pb  Pre-bend
| br  Bend release
| pbr Pre-bend release
| brb Bend release bend
| (0) Tied note

************************************

            
            
Suggest correction
Creating personal tab
Creating personal tab
You can edit any tab online and save it as your Personal.

You can edit, replace or remove any tab part or add personal notes – all changes will be seen only by you.

Personal tabs can be accessed anytime from any device, even offline.
Learn more »
Give kudos to tab author, rate the tab!
1 2 3 4 5
comments
print report bad tab
guest
You may want to rate the tab now too:
select rating
Wanna post a correction for this tab? Suggest correction