Oops, an error
Loading. Please wait.
We have an official Your Betrayal tab made by UG professional guitarists. Check out the tab »
×
41,654 views 21 this week
8 commentsread comments
1 2 3 4 5
x 21
add to favorites
×
Save as Personal and add changes to this tab that will be seen only by you. Learn more ›
×
You can save this tab as Personal to edit and correct it or add notes. All changes will be seen only by you. Learn more »
launch autoscroll
font size
0
reset
guitar tuner
backing track
0:00
0:00
edit
Autoscroll
slow
fast
+/-
esc
set tempo
stop
Your Betrayal - Bullet for my Valentine

Tabbed By : Kergash
e-mail: h_bjerkg@live.no

My third tab, yet another time by Bullet for my Valentine. Heard one of their 
new singles and just instantly got hit with that "Wow"-feeling you get when a 
song really touches you. So I decided to give it a go at tabbing this song for 
you all! :) Please comment with eventual corrections. Other than that; Have fun 
playing an awesome song!

Tuning: Drop C

[Intro Part 1] (This part is quite long, fyi)
F|-------------------------------------------------------------------| Really, just keep on 
C|-------------------------------------------------------------------| spamming this till just 
G|-------------------------------------------------------------------| about 0:50, where they 
C|-000000000-00000-00000---------------------------------------------| change things and go to the
                                                                               next step here.
[Intro Part 2]                                                         
F|---------------------------------------------------------------------------|
C|---------------------------------------------------------------------------|
G|--------------------------------------------5-3-111111111-11111-11111------|
C|-000000000-00000-00000-000000000-00000-0000--------------------------------|

F|-----------------|End 1st--------|-End 2nd time---------------------| Do the parts before the 
C|-----------------|--time---------|--7-5-3-2-------------------------| line here twice, then end
G|-333333333-33333-|---------------|----------------------------------|  
C|-----------------|-3h003h00-12\0-|----------------------------------|

[Verse]
F|----------------------------------|----End the verse after the 4th time----|
C|--------------------3-0----2------|----with this---------------------------|
G|------------------------3----3----|x4--------------------------------------|
C|-0-0-0-0---0-0-0-0-------------3--|---0r-----------------------------------|

[Chorus]
F|---------------------------------------------------------------------------|
C|---------------------------------------------------------------------------|
G|--------------------------------------------5-3-111111111-11111-11111------|
C|-000000000-00000-00000-000000000-00000-0000--------------------------------|

F|-----------------|End 1st--------|-End 2nd time---------------------|
C|-----------------|--time---------|--7-5-3-2-------------------------| 
G|-333333333-33333-|---------------|----------------------------------|  
C|-----------------|-3h003h00-12\0-|----------------------------------|

[Verse 2]
F|---------------------------------------------------------------------------|
C|--------------------3-0----2-----------------------------3-0---2-----------|
G|------------------------3----3-------------------------------3---3---------|
C|-0-0-0-0---0-0-0-0-------------3---0-0-0-0-0/15\-0-0-0-0-----------3-------|

F|---------------------------------------------------------------------------|
C|--------------------3-0----2-------------------------3-0---2---------------|
G|------------------------3----3---------------------------3---3-------------|
C|-0-0-0-0---0-0-0-0-------------3---0-0-0-0---0-0-0-0-----------3-----0r-----|

[Chorus]
F|---------------------------------------------------------------------------|
C|---------------------------------------------------------------------------|
G|--------------------------------------------5-3-111111111-11111-11111------|
C|-000000000-00000-00000-000000000-00000-0000--------------------------------|

F|-----------------|End 1st--------|-End 2nd time----------------------------| 
C|-----------------|--time---------|--7-5-3-2--------------------------------| 
G|-333333333-33333-|---------------|-----------------------------------------|  
C|-----------------|-3h003h00-12\0-|----------0r-----------------------------|

[Bridge/Breakdown]
F|---------------------------------------------------------------------------| Note rings from the 
C|---------------------------------------------------------------------------| end of the previous
G|---------------------------------------------------------------------------| chorus.
C|-0r----3-1-0-1-0r----10\0-0-0-0-0-0-0-0-0-0-0-0----------------------------|

F|---------------------------------------------------------------------------| 
C|------------------------------------------------------Note: 1 and 0, not 10|  
G|---------------------------------------------------------------10----------| 
C|-000-000-000000-000-000-0000000000-000-000-000000-000-000-3101---53--------| 

F|---------------------------------------------------------------------------|
C|---------------------------------------------------------------------------|
G|---------------------------------------------------------------10----------|
C|-000-000-000000-000-000-0000000000-000-000-000000-000-000-3101---53-0r-----|

[Chorus]
F|---------------------------------------------------------------------------|
C|---------------------------------------------------------------------------|
G|--------------------------------------------5-3-111111111-11111-11111------|
C|-000000000-00000-00000-000000000-00000-0000--------------------------------|

F|-----------------|End 1st--------|-End 2nd time----------------------------| 
C|-----------------|--time---------|--7-5-3-2--------------------------------| 
G|-333333333-33333-|---------------|-----------------------------------------|  
C|-----------------|-3h003h00-12/0-|----------000000000-00000-00000----------|

************************************

| h  Hammer-on
| \  Slide down
| x  Dead note
| r  Release
| /  Slide up

************************************

            
            
Suggest correction
Creating personal tab
Creating personal tab
You can edit any tab online and save it as your Personal.

You can edit, replace or remove any tab part or add personal notes – all changes will be seen only by you.

Personal tabs can be accessed anytime from any device, even offline.
Learn more »
comments
print report bad tab
8 comments total. Showing first comments.
0 reply
Shuckins 10 Mar 25, 2010 11:33 AM

completely perfect!!!! Thanks a bunch!!!!

0 reply
petey1993 52 Apr 13, 2010 07:35 PM

excellent
thanks so much for posting!

0 reply
bamboy1104 10 Sep 30, 2010 10:08 AM

Yeah perfect tab man. Bullet rocks \m/

guest
You may want to rate the tab now too:
select rating
Wanna post a correction for this tab? Suggest correction