Oops, an error
Loading. Please wait.

Karma tab

version 1
version 1

Whole song

Interactive

10,443 views 6 this week
no commentswrite comment
1 2 3 4 5
3 more votes to show rating
add to favorites
×
Save as Personal and add changes to this tab that will be seen only by you. Learn more ›
×
You can save this tab as Personal to edit and correct it or add notes. All changes will be seen only by you. Learn more »
launch autoscroll
font size
0
reset
how to read this tab
guitar tuner
edit
Autoscroll
slow
fast
+/-
esc
set tempo
stop
Difficulty

Gtr I (E A D G B E) - 'Lead'
Gtr II (E A D G B E) - 'Harmonic'
Gtr III (E A D G B E) - 'Rythm 1'

  Q=96
  Gtr I
    Q   Q   Q   Q     Q   Q   Q   Q
|-/14--13----------|-14--13----------|
|----------14------|---------14------|
|--------------13--|-------------11--|
|------------------|-----------------|
|------------------|-----------------|
|------------------|-----------------|
|
| Gtr III
|   H       H         H       H
|------------------|-----------------|
|------------------|-----------------|
|------------------|-----------------|
|---4-------6------|--4------11------|
|---2-------4------|--6------11------|
|---2-------4------|--6-------9------|


   Q   Q   Q   Q     Q   Q   S  S  S  E   E    S
|-14--13----------|-14--13---------------------------|
|---------14------|---------14-14-14-14-(16)\--------|
|-------------13--|---------------------------13-----|
|-----------------|----------------------------------|
|-----------------|----------------------------------|
|-----------------|----------------------------------|
|
|  H       H         H       S  S  S  E        E.
|-----------------|----------------------------------|
|-----------------|----------------------------------|
|-----------------|----------------------------------|
|--4-------6------|--4-------9--9--9--9--------------|
|--2-------4------|--6-------9--9--9--9--------------|
|--2-------4------|--6-------7--7--7--7--------------|


  E   S S S E   E   E   E   E   S   E   E   S E   E   S S S E   E
|-4---6-6-6-----2-------4-------6-|-2---2---2-2---2---0-0-0-0---0---|
|-4---2-2-2-----7---4---2---4---7-|-2---2---2-2---2---0-0-0-0---0---|
|-----------4---------------------|---------------------------------|
|---------------------------------|---------------------------------|
|---------------------------------|---------------------------------|
|---------------------------------|---------------------------------|
|
| S S S S S S S S S S S S S S S S   S S S S S S S S S S S S S S S S
|---------------------------------|---------------------------------|
|---------------------------------|---------------------------------|
|---------------------------------|---------------------------------|
|-6---6-----6---6-4---4-----4---4-|-9---9-----9---9-9---9-----9---9-|
|-4---4-----4---4-2---2-----2---2-|-9---9-----9---9-9---9-----9---9-|
|-4-4-4-4-4-4-4-4-2-2-2-2-2-2-2-2-|-9-9-9-9-9-9-9-9-7-7-7-7-7-7-7-7-|


  S S S S S E   E   E   E   E   S   E   E   S E   E   S S S E.     S
|-4-4-4---6-----7-------9---------|-2---2---2-2-------------------------|
|-4-4-4-4-2-2-------0---7---2---4-|-2---2---2-2---4---4-4-4-4------4----|
|---------------4-----------------|---------------4---4-4-4-4------4----|
|---------------------------------|-------------------------------------|
|---------------------------------|-------------------------------------|
|---------------------------------|-------------------------------------|
|
| S S S S S S S S S S S S S S S S   S S S S S S S S S S S S S  S S S
|---------------------------------|-------------------------------------|
|---------------------------------|-------------------------------------|
|---------------------------------|-------------------------------------|
|-6---6-----6---6-4---4-----4---4-|-9---9-----9---9-9---9------9---9----|
|-4---4-----4---4-2---2-----2---2-|-9---9-----9---9-9---9------9---9----|
|-4-4-4-4-4-4-4-4-2-2-2-2-2-2-2-2-|-9-9-9-9-9-9-9-9-7-7-7-7-7--7-7-7----|


  S S E   E   S S S S E   E.     S   S S S S S S S S S S E   E.     S
|-6-6-6---6-----4-6-6-6---6------4-|-6-4-4---------------4------------|
|-------------7--------------------|-------7-7-4-4-----------7--------|
|----------------------------------|---------------6-6-6------------6-|
|----------------------------------|----------------------------------|
|----------------------------------|----------------------------------|
|----------------------------------|----------------------------------|
|
| S S S S S S S S S S S S S  S S S   S S S S S S S S S S S S S  S S S
|----------------------------------|----------------------------------|
|----------------------------------|----------------------------------|
|----------------------------------|----------------------------------|
|-9---9-----9---9-4---4------4---4-|-6---6-----6---6-4---4------4---4-|
|-9---9-----9---9-6---6------6---6-|-4---4-----4---4-6---6------6---6-|
|-7-7-7-7-7-7-7-7-6-6-6-6-6--6-6-6-|-4-4-4-4-4-4-4-4-6-6-6-6-6--6-6-6-|


  S S E   E   S E   S E   E.     S   E   S E   E   S E.     S Q
|-------------9-9---6-4----------4-|-6---6-4------------------4----------|
|-----9---7---------------7--------|-----------4---6-7------7------------|
|-6-6------------------------------|-------------------------------------|
|----------------------------------|-------------------------------------|
|----------------------------------|-------------------------------------|
|----------------------------------|-------------------------------------|
|
| S S S S S S S S S S S S S  S S S   S S S S S S S S S  S S S S S S S
|----------------------------------|-------------------------------------|
|----------------------------------|-------------------------------------|
|----------------------------------|-------------------------------------|
|-9---9-----9---9-4---4------4---4-|-6---6-----6---6-4----4-----4--------|
|-9---9-----9---9-6---6------6---6-|-4---4-----4---4-4----4-----4--------|
|-7-7-7-7-7-7-7-7-6-6-6-6-6--6-6-6-|-4-4-4-4-4-4-4-4-2--2-2-2-2-2-2-2----|


  S S E   E   S S S S E   E.     S   S S S S S S S S S S E   E.     S
|----------------------------------|----------------------------------|
|----------------------------------|----------------------------------|
|-3-3-3---3-----1-3-3-3---3------1-|-3-1-1---------------1------------|
|-------------4--------------------|-------4-4-1-1-----------4--------|
|----------------------------------|---------------4-4-4------------4-|
|----------------------------------|----------------------------------|
|
| S S S S S S S S S S S S S  S S S   S S S S S S S S S S S S S  S S S
|----------------------------------|----------------------------------|
|----------------------------------|----------------------------------|
|----------------------------------|----------------------------------|
|-9---9----------------------------|----------------------------------|
|-9---9----------------------------|----------------------------------|
|-7-7-7-7-7-7-7-7-6-6-6-6-6--6-6-6-|-4-4-4-4-4-4-4-4-6-6-6-6-6--6-6-6-|
|
| Gtr II
|----------------------------------|----------------------------------|
|----------------------------------|----------------------------------|
|----------------------------------|----------------------------------|
|----------------------------------|----------------------------------|
|----------------------------------|----------------------------------|
|----------------------------------|----------------------------------|


  S S E   E   S E   S E   E.     S   S  E E E     Q  E   S S S
|----------------------------------|-----------------------------|
|----------------------------------|-----------------------------|
|-------------6-8---3-1---1------1-|-4--3------------------3-----|
|-----6---4------------------------|------4-3-----4--4---6---6---|
|-4-4------------------------------|-----------------------------|
|----------------------------------|-----------------------------|
|
| S S S S S S S S S S S S S  S S S   E.        E.      H
|----------------------------------|-----------------------------|
|----------------------------------|-----------------------------|
|----------------------------------|-----------------------------|
|----------------------------------|-9--------11-------4---------|
|----------------------------------|-9--------11-------4---------|
|-7-7-7-7-7-7-7-7-6-6-6-6-6--6-6-6-|-7---------9-------2---------|
|
|                                    S  E E E     Q  E   S S S
|----------------------------------|-----------------------------|
|----------------------------------|-----------------------------|
|----------------------------------|-4--3------------------3-----|
|----------------------------------|------4-3-----4--4---6---6---|
|----------------------------------|-----------------------------|
|----------------------------------|-----------------------------|


   E   S  E   S  S  Q   E  S  S  S    E   S  E   S  S  Q   S  S  S  S  S
|----------------------------------|-------------------------------------|
|----------------------------------|-------------------------------------|
|-15--18-18--15-20-18--18-16-15-16-|-15--18-23--23-20-18-----15-18-18-15-|
|----------------------------------|----------------------16-------------|
|----------------------------------|-------------------------------------|
|----------------------------------|-------------------------------------|
|
|  E.     E.     H                    E.     E.     H
|----------------------------------|-------------------------------------|
|----------------------------------|-------------------------------------|
|----------------------------------|-------------------------------------|
|--8------8------9-----------------|--8------8------9--------------------|
|--8------8------9-----------------|--8------8------9--------------------|
|--6------6------7-----------------|--6------6------7--------------------|


   E   S  E   S  S  Q   E  S  S  S
|-----------------------------------|
|-----------------------------------|
|-15--18-18--15-20-18--18-16-15-13--|
|-----------------------------------|
|-----------------------------------|
|-----------------------------------|
|
|  E.     E.     H
|-----------------------------------|
|-----------------------------------|
|-----------------------------------|
|-11-----11------9------------------|
|-11-----11------9------------------|
|--9------9------7------------------|


   Q   E   E   E  E  Q
|-------------------------|
|-------------------------|
|-----15------15-16-18----|
|-16------16--------------|
|-------------------------|
|-------------------------|
|
| Gtr II
|  Q   E   E   E  E  Q
|-------------------------|
|-------------------------|
|------3-------3--4--6----|
|--4-------4--------------|
|-------------------------|
|-------------------------|
|
| Gtr III
|  Q   E   E   H
|-------------------------|
|--4--(4)-(4)--3----------|
|--4---3-------3----------|
|--4-------4---3----------|
|--2--(2)-(2)--1----------|
|-------------------------|


   E   E  E  H       S  S    Q   E.  S  S  S  Q    S  S
|-----14-13---------------|-----------------------------|
|-14--------14------------|-14--14--16-14---------------|
|-------------------15-16-|---------------16-15---15-15-|
|-------------------------|-----------------------------|
|-------------------------|-----------------------------|
|-------------------------|-----------------------------|
|
|                            Q   Q      Q       Q
|-------------------------|-----------------------------|
|-------------------------|-----------------------------|
|-------------------------|-----------------------------|
|-------------------------|-----------------------------|
|-------------------------|--4---6------8-------9-------|
|-------------------------|-----------------------------|
|
|  Q.       +S  H       S    W
|-------------------------|-----------------------------|
|-------------------------|-----------------------------|
|-------------------------|-----------------------------|
|--4--------(4)-4-------4-|--4--------------------------|
|--2--------(2)-2-------2-|--4--------------------------|
|--2--------(2)-2-------2-|--2--------------------------|


                                                      ~~~
   E   E  S  E      E.  E  E      E    E  S   E   S   E.    S   S  S  S   S  S   S
|-----------------------------------|--------13------14----13--11--------------------|
|-----------------------------------|----16------16---------------14-12--11----------|
|-15--13-15-16-----15--13--------13-|-15------------------------------------13--11---|
|-------------------------16--------|------------------------------------------------|
|-----------------------------------|------------------------------------------------|
|-----------------------------------|------------------------------------------------|
|
|  Q.          +S   Q.       +E.       E  S   E   S   E.    E.        E      E
|-----------------------------------|---------1-------2-----1------------------------|
|-----------------------------------|-----4-------4-------------------2--------------|
|--3-----------(3)--1--------(1)----|--3-------------------------------------4-------|
|-----------------------------------|--3-(3)-(3)-(3)-(3)---(3)-------(3)----(3)------|
|-----------------------------------|------------------------------------------------|
|-----------------------------------|------------------------------------------------|
|
|  Q.          +S   Q.       +E.       E  S   E   S   E  S  E      S  E   E
|-----------------------------------|------------------------------------------------|
|-----------------------------------|------------------------------------------------|
|-----------------------------------|------------------------------------------------|
|--3-----------(3)--4--------(4)----|--4--4---6---6---4--4--8------8--9---9----------|
|--1-----------(1)--2--------(2)----|--2--2---4---4---6--6--8------8--9---9----------|
|--1-----------(1)--2--------(2)----|--2--2---4---4---6--6--6------6--7---9----------|


   E   E  E  H       S  S    Q   E.  S  S  S  Q    S  S
|-----14-13---------------|-----------------------------|
|-14--------14------------|-14--14--16-14---------------|
|-------------------15-16-|---------------16-15---15-15-|
|-------------------------|-----------------------------|
|-------------------------|-----------------------------|
|-------------------------|-----------------------------|
|
|  E   E  E  H       S  S    Q   Q      Q       Q
|------2--1---------------|-----------------------------|
|--2---------2------------|-----------------------------|
|--------------------3--4-|-----------------------------|
|-------------------------|-----------------------------|
|-------------------------|--4---6------8-------9-------|
|-------------------------|-----------------------------|
|
|  Q.       +S  H       S    W
|-------------------------|-----------------------------|
|-------------------------|-----------------------------|
|-------------------------|-----------------------------|
|--4--------(4)-4-------4-|--4--------------------------|
|--2--------(2)-2-------2-|--4--------------------------|
|--2--------(2)-2-------2-|--2--------------------------|


                                                   ~~~
   E   E  S  E      E.  E  E      E    E  S  E  S  Q.        S  S  E
|-----------------------------------|-------13----14------------------|
|-----------------------------------|----16----16-----------12-14-16--|
|-15--13-15-16-----15--13--------13-|-15------------------------------|
|-------------------------16--------|---------------------------------|
|-----------------------------------|---------------------------------|
|-----------------------------------|---------------------------------|
|
|                                                  ~~~
|  E   E  S  E      E.  E  E      E    E  S  E  S  Q.        S  S  E
|-----------------------------------|--------1-----2------------------|
|-----------------------------------|-----4-----4------------0--2--4--|
|--3---1--3--4------3---1---------1-|--3------------------------------|
|--------------------------4--------|---------------------------------|
|-----------------------------------|---------------------------------|
|-----------------------------------|---------------------------------|
|
|  Q.          +S   Q.       +E.       E  S  E  S  E  S E S  E     E
|-----------------------------------|---------------------------------|
|-----------------------------------|---------------------------------|
|-----------------------------------|---------------------------------|
|--3-----------(3)--4--------(4)----|--4--4--6--6--4--4-8-8--9-----9--|
|--1-----------(1)--2--------(2)----|--2--2--4--4--6--6-8-8--9-----9--|
|--1-----------(1)--2--------(2)----|--2--2--4--4--6--6-6-6--7-----9--|


   Q   E  E  E  E  Q       E  E   E  E   Q     Q
|---------------------|------------------4-----9---|
|-14--16-19-19-18-19--|-------4---6--7-------------|
|---------------------|----------------------------|
|---------------------|----------------------------|
|---------------------|----------------------------|
|---------------------|----------------------------|
|
|                          Q      Q      Q     Q
|---------------------|-/(14)---(13)---------------|
|---------------------|----------------(14)--------|
|---------------------|----------------------(13)--|
|---------------------|----------------------------|
|---------------------|----------------------------|
|---------------------|----------------------------|
|
|  H         H             H             H
|---------------------|----------------------------|
|--4---------6--------|----4-----------------------|
|--4---------6--------|----4-------------3---------|
|--4---------6--------|----4-------------4---------|
|--2---------4--------|----2-------------4---------|
|---------------------|------------------2---------|


    E  E   E  E   E  E   E  E     E  E   E  E   Q     Q
|------9---7--6---7--6--------|-----------------4-----9---|
|------------------------7--9-|------4---6--7-------------|
|-----------------------------|---------------------------|
|-----------------------------|---------------------------|
|-----------------------------|---------------------------|
|-----------------------------|---------------------------|
|
|   Q      Q      Q      Q        Q      Q      Q     Q
|-(14)---(13)-----------------|-(14)---(13)---------------|
|---------------(14)----------|---------------(14)--------|
|----------------------(11)---|---------------------(13)--|
|-----------------------------|---------------------------|
|-----------------------------|---------------------------|
|-----------------------------|---------------------------|
|
|   H             H               H             H
|-----------------------------|---------------------------|
|---4-------------------------|---4-----------------------|
|---4-------------3-----------|---4-------------3---------|
|---4-------------4-----------|---4-------------4---------|
|---2-------------4-----------|---2-------------4---------|
|-----------------2-----------|-----------------2---------|


    S  S S S   S  S S S   S    S    S    S   S S  S S
|---x--9-9-x---x--7-7-x---x----6----6----x---4-x--2-x----|
|--------------------------------------------------------|
|--------------------------------------------------------|
|--------------------------------------------------------|
|--------------------------------------------------------|
|--------------------------------------------------------|
|
|   Q          Q          S    S    S    E     E.
|-(14)-------(13)----------------------------------------|
|-----------------------(14)-(14)-(14)-(16)\-------------|
|--------------------------------------------------------|
|--------------------------------------------------------|
|--------------------------------------------------------|
|--------------------------------------------------------|
|
|   W
|--------------------------------------------------------|
|---4----------------------------------------------------|
|---4----------------------------------------------------|
|---4----------------------------------------------------|
|---2----------------------------------------------------|
|--------------------------------------------------------|


                                                         ~~~
  E E E E Q   Q     E  E E E E E E E   Q  E E E E E E    H.      E  E
|-------6-7--11--|-13-14-9-7-7-6-6---|------9-7-6-----|-14------------|
|---7-9----------|-----------------7-|----7-------9-7-|----------7-11-|
|----------------|-------------------|----------------|---------------|
|----------------|-------------------|----------------|---------------|
|----------------|-------------------|----------------|---------------|
|----------------|-------------------|----------------|---------------|
|
|                                                        ~~~
| E E E E Q   Q     E  E E E E E E E   Q  E E E E E E    H.      E  E
|----------------|-------------------|----------------|---------------|
|----------------|-------------------|----------------|---------------|
|-------3-4---8--|-10-11-6-4-4-3-3---|------6-4-3-----|-11------------|
|---4-6----------|-----------------4-|----4-------6-4-|----------4--8-|
|----------------|-------------------|----------------|---------------|
|----------------|-------------------|----------------|---------------|
|
| H       H         H        H         H      H          W
|----------------|-------------------|----------------|---------------|
|---------4------|--4----------------|--------4-------|---------------|
|-3-------4------|--4--------3-------|-3------4-------|--3------------|
|-4-------4------|--4--------4-------|-4------4-------|--4------------|
|-4-------2------|--2--------4-------|-4------2-------|--4------------|
|-2--------------|-----------2-------|-2--------------|--2------------|


   E   E  E   H        S  S    Q   E.  S  S  S  Q   S  S
|-----14-13-----------------|----------------------------|
|-14---------14-------------|-14--14--16-14--------------|
|---------------------15-16-|---------------16-15--15-15-|
|---------------------------|----------------------------|
|---------------------------|----------------------------|
|---------------------------|----------------------------|
|
|---------------------------|----------------------------|
|---------------------------|----------------------------|
|---------------------------|----------------------------|
|---------------------------|----------------------------|
|---------------------------|----------------------------|
|---------------------------|----------------------------|
|
|  Q.        +S   H            W
|-^2-------------^2---------|-^2-------------------------|
|-^4-------------^4---------|-^2-------------------------|
|-^4-------------^4---------|-^3-------------------------|
|-^4--------^(4)-^4---------|-^4-------------------------|
|-^2--------^(2)-^2---------|-^4-------------------------|
|-^2--------^(2)-^2---------|-^2-------------------------|


                                                     ~~~
   E   E  S  E       E.  E  E       E    E  S  E  S  Q.       S  S  E
|-------------------------------------|-------13----14-----------------|
|-------------------------------------|----16----16-----------7-11-14--|
|-15--13-15-16------15--13---------13-|-15-----------------------------|
|--------------------------16---------|--------------------------------|
|-------------------------------------|--------------------------------|
|-------------------------------------|--------------------------------|
|
|                                                    ~~~
|                                        E  S  E  S  Q.       S  S  E
|-------------------------------------|--------1-----2-----------------|
|-------------------------------------|-----4-----4-----------------2--|
|-------------------------------------|--3-----------------------3-----|
|-------------------------------------|-----------------------4--------|
|-------------------------------------|--------------------------------|
|-------------------------------------|--------------------------------|
|
|  Q.           +S   Q.        +E.       E  S  E  S  E  S E S E     E
|-^1----------------^2----------------|--------------------------------|
|-^2----------------^4----------------|--------------------------------|
|-^3----------------^4----------------|--------------------------------|
|-^3-----------^(3)-^4--------^(4)----|--4--4--6--6--4--4-8-8-9-----9--|
|-^1-----------^(1)-^2--------^(2)----|--2--2--4--4--6--6-8-8-9-----9--|
|-^1-----------^(1)-^2--------^(2)----|--2--2--4--4--6--6-6-6-7-----9--|


   E   E  E  H       S  S    Q   E.  S  S  S  Q     S  S
|-----14-13---------------|------------------------------|
|-14--------14------------|-14--14--16-14----------------|
|-------------------15-16-|---------------16-15----15-15-|
|-------------------------|------------------------------|
|-------------------------|------------------------------|
|-------------------------|------------------------------|
|
|  E   E  E  H       S  S    Q   Q      Q        Q
|-------------------------|------------------------------|
|-------------------------|------------------------------|
|-----11-10---------------|------------------------------|
|-11--------11------------|------------------------------|
|-------------------13-14-|-16--18-----20-------21-------|
|-------------------------|------------------------------|
|
|  Q.       +S  H       S    W
|-------------------------|------------------------------|
|-------------------------|------------------------------|
|-------------------------|------------------------------|
|--4--------(4)-4-------4-|--4---------------------------|
|--2--------(2)-2-------2-|--4---------------------------|
|--2--------(2)-2-------2-|--2---------------------------|


                                                      ~~~
   E   E  S  E      E.  E  E      E    E  S   E   S   E.    S   S  S  S   S  S   S
|-----------------------------------|--------13------14----13--11--------------------|
|-----------------------------------|----16------16---------------14-12--11----------|
|-15--13-15-16-----15--13--------13-|-15------------------------------------13--11---|
|-------------------------16--------|------------------------------------------------|
|-----------------------------------|------------------------------------------------|
|-----------------------------------|------------------------------------------------|
|
|  E   E  S  E      E.  E  E      E    E  S   E   S   E.    E.        E      E
|-----------------------------------|---------1-------2-----1------------------------|
|-----------------------------------|-----4-------4-------------------2--------------|
|-----------------------------------|--3-------------------------------------4-------|
|-----------------------------------|--3-(3)-(3)-(3)-(3)---(3)-------(3)----(3)------|
|-13--11-13-14-----13--11--------11-|------------------------------------------------|
|-------------------------14--------|------------------------------------------------|
|
|  Q.          +S   Q.       +E.       E  S   E   S   E  S  E      S  E      E
|-----------------------------------|------------------------------------------------|
|-----------------------------------|------------------------------------------------|
|-----------------------------------|------------------------------------------------|
|--3-----------(3)--4--------(4)----|--4--4---6---6---4--4--8------8--9------9-------|
|--1-----------(1)--2--------(2)----|--2--2---4---4---6--6--8------8--9------9-------|
|--1-----------(1)--2--------(2)----|--2--2---4---4---6--6--6------6--7------9-------|


   E   E  E  H       S  S    Q   E.  S  S  S  Q     S  S
|-----14-13---------------|------------------------------|
|-14--------14------------|-14--14--16-14----------------|
|-------------------15-16-|---------------16-15----15-15-|
|-------------------------|------------------------------|
|-------------------------|------------------------------|
|-------------------------|------------------------------|
|
|  E   E  E  H       S  S    Q   Q      Q        Q
|-------------------------|------------------------------|
|-------------------------|------------------------------|
|-----11-10---------------|------------------------------|
|-11--------11------------|------------------------------|
|-------------------13-14-|-16--18-----20-------21-------|
|-------------------------|------------------------------|
|
|  Q.       +S  H       S    W
|-------------------------|------------------------------|
|-------------------------|------------------------------|
|-------------------------|------------------------------|
|--4--------(4)-4-------4-|--4---------------------------|
|--2--------(2)-2-------2-|--4---------------------------|
|--2--------(2)-2-------2-|--2---------------------------|


                                                   ~~~
   E   E  S  E      E.  E  E      E    E  S  E  S  Q.       S  S  E
|-----------------------------------|-------13----14-----------------|
|-----------------------------------|----16----16-----------7-11-14--|
|-15--13-15-16-----15--13--------13-|-15-----------------------------|
|-------------------------16--------|--------------------------------|
|-----------------------------------|--------------------------------|
|-----------------------------------|--------------------------------|
|
|                                                  ~~~
|  E   E  S  E      E.  E  E      E    E  S  E  S  Q.       S  S  E
|-----------------------------------|--------1-----2-----------------|
|-----------------------------------|-----4-----4-----------------2--|
|-----------------------------------|--3-----------------------3-----|
|-----------------------------------|-----------------------4--------|
|-13--11-13-14-----13--11--------11-|--------------------------------|
|-------------------------14--------|--------------------------------|
|
|  Q.          +S   Q.       +E.       E  S  E  S  E  S E S E     E
|-----------------------------------|--------------------------------|
|-----------------------------------|--------------------------------|
|-----------------------------------|--------------------------------|
|--3-----------(3)--4--------(4)----|--4--4--6--6--4--4-8-8-9-----9--|
|--1-----------(1)--2--------(2)----|--2--2--4--4--6--6-8-8-9-----9--|
|--1-----------(1)--2--------(2)----|--2--2--4--4--6--6-6-6-7-----9--|


   E  E  E  E  Q   Q     H.        S  S  E
|-------11-14-14--13--|-14-----------------|
|-14-12---------------|------------7-11-14-|
|---------------------|--------------------|
|---------------------|--------------------|
|---------------------|--------------------|
|---------------------|--------------------|
|
|  E  E  E  E  Q   Q     H.        S  S  E
|---------------------|--------------------|
|---------------------|--------------------|
|--------8-11-11--10--|-11-----------------|
|-11--9---------------|------------4--8-11-|
|---------------------|--------------------|
|---------------------|--------------------|
|
|  W                     Q   Q  H
|---------------------|--------------------|
|---------------------|--------------------|
|---------------------|--------------------|
|--4------------------|--6---4--9----------|
|--2------------------|--4---6--9----------|
|--2------------------|--4---6--7----------|


   Q   E  E  Q   Q     H.                        Q
|-----11-14-14--13--|-14------------------------13-------|
|-12----------------|------------------------------------|
|-------------------|------------------------------------|
|-------------------|------------------------------------|
|-------------------|------------------------------------|
|-------------------|------------------------------------|
|
|  Q   E  E  Q   Q     H.                        Q
|-------------------|------------------------------------|
|-------------------|------------------------------------|
|------8-11-11--10--|-11------------------------10-------|
|--9----------------|------------------------------------|
|-------------------|------------------------------------|
|-------------------|------------------------------------|
|
|  W                   S  S S S S S S S S S S S  S S S S
|-------------------|------------------------------------|
|-------------------|------------------------------------|
|-------------------|------------------------------------|
|--4----------------|--6----6-----6---6-4---4------4---4-|
|--2----------------|--4----4-----4---4-2---2------2---2-|
|--2----------------|--4--4-4-4-4-4-4-4-2-2-2-2--2-2-2-2-|


  W                                  H                Q       Q
|-9-------------------------------|-14---------------13-------9-------|
|---------------------------------|-----------------------------------|
|---------------------------------|-----------------------------------|
|---------------------------------|-----------------------------------|
|---------------------------------|-----------------------------------|
|---------------------------------|-----------------------------------|
|
| H               E   E   E   E      H                E   E   E   E
|---------------------------------|-----------------------------------|
|---------------------------------|-----------------------------------|
|---------------------------------|-----------------------------------|
|---------------------------------|-----------------------------------|
|---------------------------------|-----------------------------------|
|-0---------------2---0---2---3---|--4----------------7---6---4---2---|
|
| S S S S S S S S S S S S S S S S    S S S S S S S S  S S S S S S S S
|---------------------------------|-----------------------------------|
|---------------------------------|-----------------------------------|
|---------------------------------|-----------------------------------|
|-9---9-----9---9-9---9-----9---9-|--6---6-----6---6--4---4-----4---4-|
|-9---9-----9---9-9---9-----9---9-|--4---4-----4---4--2---2-----2---2-|
|-9-9-9-9-9-9-9-9-7-7-7-7-7-7-7-7-|--4-4-4-4-4-4-4-4--2-2-2-2-2-2-2-2-|


   E    S    H         E.   E
|-11---11---11---------------------------|
|----------------------------------------|
|----------------------------------------|
|----------------------------------------|
|----------------------------------------|
|----------------------------------------|
|
|  H                 E    E   E   E
|----------------------------------------|
|----------------------------------------|
|----------------------------------------|
|----------------------------------------|
|----------------------------------------|
|--0-----------------2----0---2---3------|
|
|  S S  S S  S S S S S S  S S S S S S
|----------------------------------------|
|----------------------------------------|
|----------------------------------------|
|--9----9------9---9-9----9-----9---9----|
|--9----9------9---9-9----9-----9---9----|
|--9-9--9-9--9-9-9-9-7-7--7-7-7-7-7-7----|


  E   S S S E   E   E   E   E   S   E   E   S E   E   S S S E   E
|-4---6-6-6-----2-------4-------6-|-2---2---2-2---2---0-0-0-0---0---|
|-4---2-2-2-----7---4---2---4---7-|-2---2---2-2---2---0-0-0-0---0---|
|-----------4---------------------|---------------------------------|
|---------------------------------|---------------------------------|
|---------------------------------|---------------------------------|
|---------------------------------|---------------------------------|
|
| S S S S S S S S S S S S S S S S   S S S S S S S S S S S S S S S S
|---------------------------2-2-2-|---------------------------2-2-2-|
|-------------2---------2-4-------|-------------2---------2-4-------|
|-----1---3-4---1-4-4-4-----------|-----1---3-4---1-4-4-4-----------|
|-4-4---4-------------------------|-4-4---4-------------------------|
|---------------------------------|---------------------------------|
|---------------------------------|---------------------------------|
|
| S S S S S S S S S S S S S S S S   S S S S S S S S S S S S S S S S
|---------------------------------|---------------------------------|
|---------------------------------|---------------------------------|
|---------------------------------|---------------------------------|
|-6---6-----6---6-4---4-----4---4-|-9---9-----9---9-9---9-----9---9-|
|-4---4-----4---4-2---2-----2---2-|-9---9-----9---9-9---9-----9---9-|
|-4-4-4-4-4-4-4-4-2-2-2-2-2-2-2-2-|-9-9-9-9-9-9-9-9-7-7-7-7-7-7-7-7-|


  S S S S S E   E   E   E   E   S   E   E   S E    E    S  S  S  E.
|-4-4-4---6-----7-------9---------|-2---2---2-2---11---11-11-11-11-----------|
|-4-4-4-4-2-2-------0---7---2---4-|-2---2---2-2---12---12-12--2-12-----------|
|---------------4-----------------|----------------4-------------------------|
|---------------------------------|------------------------------------------|
|---------------------------------|------------------------------------------|
|---------------------------------|------------------------------------------|
|
| S S S S S S S S S S S S S S S S   S S S S S S S  S S  S  S  S  S  S S S
|---------------------------2-2-2-|---------------------------------2-2-2----|
|-------------2---------2-4-------|-------------2-------------2--4-----------|
|-----1---3-4---1-4-4-4-----------|-----1---3-4----1-4--4--4-----------------|
|-4-4---4-------------------------|-4-4---4----------------------------------|
|---------------------------------|------------------------------------------|
|---------------------------------|------------------------------------------|
|
| S S S S S S S S S S S S S S S S   S S S S S S S  S S  S  S  S  S  S S S
|---------------------------------|------------------------------------------|
|---------------------------------|------------------------------------------|
|---------------------------------|------------------------------------------|
|-6---6-----6---6-4---4-----4---4-|-9---9-----9----9-9-----9--------9---9----|
|-4---4-----4---4-2---2-----2---2-|-9---9-----9----9-9-----9--------9---9----|
|-4-4-4-4-4-4-4-4-2-2-2-2-2-2-2-2-|-9-9-9-9-9-9-9--9-7--7--7--7--7--7-7-7----|



Duration Legend
---------------
W - whole; H - half; Q - quarter; E - 8th; S - 16th; T - 32nd; X - 64th; a - acciaccatura
+ - note tied to previous; . - note dotted; .. - note double dotted
Uncapitalized letters represent notes that are staccato (1/2 duration)
Irregular groupings are notated above the duration line
Duration letters will always appear directly above the note/fret number it represents the
duration for.  Duration letters with no fret number below them represent rests.  Multi-
bar rests are notated in the form Wxn, where n is the number of bars to rest for.  Low
melody durations appear below the staff

Tablature Legend
----------------
 h   - hammer-on
 p   - pull-off
 b   - bend
 pb  - pre-bend
 r   - bend release (if no number after the r, then release immediately)
 /\  - slide into or out of (from/to "nowhere")
 s   - legato slide
 S   - shift slide
 - natural harmonic
[n]  - artificial harmonic
n(n) - tapped harmonic
 ~   - vibrato
 tr  - trill
 T   - tap
 TP  - trem. picking
 PM  - palm muting
\n/  - tremolo bar dip; n = amount to dip
 \n  - tremolo bar down
 n/  - tremolo bar up
/n\  - tremolo bar inverted dip
 =   - hold bend; also acts as connecting device for hammers/pulls
 <> - volume swell (louder/softer)
 x   - on rhythm slash represents muted slash
 o   - on rhythm slash represents single note slash

Misc Legend
-----------
 |  - bar
||  - double bar
||o - repeat start
o|| - repeat end
*|  - double bar (ending)
 :  - bar (freetime)
 $  - Segno
 &  - Coda
Tempo markers -  = BPM(8/16=s8/s16), where s8 = swing 8ths, s16 = swing 16ths

            
            
Suggest correction
Creating personal tab
Creating personal tab
You can edit any tab online and save it as your Personal.

You can edit, replace or remove any tab part or add personal notes – all changes will be seen only by you.

Personal tabs can be accessed anytime from any device, even offline.
Learn more »
Give kudos to tab author, rate the tab!
1 2 3 4 5
comments
print report bad tab
guest
Wanna post a correction for this tab? Suggest correction