Oops, an error
Loading. Please wait.

Silly Lily tab

version 2
version 2

Whole song

Interactive

7,597 views 1 this week
3 commentsread comments
1 2 3 4 5
x 3
add to favorites
×
Save as Personal and add changes to this tab that will be seen only by you. Learn more ›
×
You can save this tab as Personal to edit and correct it or add notes. All changes will be seen only by you. Learn more »
launch autoscroll
font size
0
reset
how to read this tab
guitar tuner
edit
Autoscroll
slow
fast
+/-
esc
set tempo
stop
Author
ARTIST - BUNKFACE
SONG   - SILLY LILLY
ALBUM  - LESSON OF THE SEASON
TUNING - STANDARD(EADGBe)
TAB BY - mattmuse41

INTRO
e|--------------------------------------------------------|
B|--------------------------------------------------------|
G|--------8-----------8-----------------------------------|
D|-----8-----8-----8-----8-------------6-----------6------|
A|--6-----------6-------------------6-----6-----6-----6---|
E|-------------------------------4-----------4------------|


(continued)
e|--------------------------------------------------------|
B|--------------------------------------------------------|
G|----------------------------------8---------------------|
D|--------8-----------6----------8-----8---------12/------|
A|-----8-----8-----6-----6----6-----------6------12/------|
E|--6-----------4--------------------------------12/------|


PRE-CHORUS
e|----------------------------------------------------------------------|
B|----------------------------------------------------------------------|
G|------8-----8-----------------------------------------8-----8/10\8----|
D|--8-8-8-888-8--------6-----6--------8-------6-----8-8-8-888-x/-x\x----|
A|--6-6-6-666-6----6-6-6-666-6----8-8-8----66-6-----6-6-6-666-6/-8\6----|
E|-----------------4-4-4-444-4----6-6-6----44-4-------------------------|
    . .   ...      . .   ...      . .      ..       . .   ...


(continued)
e|-------------------------------------------------------------------------|
B|-------------------------------------------------------------------------|
G|-------------------------------------------------------------------------|
D|--6-6-6-666-66-6----8-8-8-888-88-8----6-6-6-666-66-6----8--8--8888-------|
A|--6-6-6-666-66-6----8-8-8-888-88-8----6-6-6-666-66-6----8--8--8888-------|
E|--4-4-4-444-44-4----6-6-6-666-66-6----4-4-4-444-44-4----6--6--6666-------|
    . . . ... .. .    . . . ... .. .    . . . ... .. .

CHORUS
e|----------------------------------------------------|
B|----------------------------------------------------|
G|--8888--------------8888--8888----------------------|
D|--8888--6666--8888--8888--8888--6666--3333--8888----|  X2
A|--6666--6666--8888--6666--6666--6666--3333--8888----|
E|--------4444--6666--------------4444--1111--6666----|

POST-CHORUS
e|--------------------------------------------------------------------------------|
B|--8-8-8-8---4-4-4-4---9-9-9-9---6-6-6-6---8-8-8-8---4-4-4-4---9-9-9-9----6--6---|
G|--x-x-x-x---x-x-x-x---x-x-x-x---x-x-x-x---x-x-x-x---x-x-x-x---x-x-x-x----x--x---|
D|--x-x-x-x---x-x-x-x---x-x-x-x---x-x-x-x---x-x-x-x---x-x-x-x---x-x-x-x----x--x---|
A|--6-6-6-6---3-3-3-3---8-8-8-8---4-4-4-4---6-6-6-6---3-3-3-3---8-8-8-8----4--4---|
E|--------------------------------------------------------------------------------|


(continued)
e|----------------------------------------------------------------------|
B|--8-8-8-8---4-4-4-4---9-9-9-9---6-6-6-6---8-8-8-8---4-4-4-4----9~-----|
G|--x-x-x-x---x-x-x-x---x-x-x-x---x-x-x-x---x-x-x-x---x-x-x-x----x~-----|
D|--x-x-x-x---x-x-x-x---x-x-x-x---x-x-x-x---x-x-x-x---x-x-x-x----x~-----|
A|--6-6-6-6---3-3-3-3---8-8-8-8---4-4-4-4---6-6-6-6---3-3-3-3----8~-----|
E|----------------------------------------------------------------------|


VERSE 1
e|----------------------------------------------------|
B|----------------------------------------------------|
G|----88-8-88-8-8/15-15-15-15-15-15-15-15-------------|
D|----88-8-88-8-x/-x--x--x--x--x--x--x--x-------------|
A|----66-6-66-6-6/13-13-13-13-13-13-13-13-------------|
E|----------------------------------------------------|
      ..   ..

(continued)
e|-------------------------------------------------------------------|
B|-------------------------------------------------------------------|
G|--88-8-88-8-88-8-88-8----------------------------------------------|
D|--88-8-88-8-88-8-88-8---66-6-66-6-66-6-66-6---88-8-88-8-66-6-66-6--|
A|--66-6-66-6-66-6-66-6---66-6-66-6-66-6-66-6---88-8-88-8-66-6-66-6--|
E|------------------------44-4-44-4-44-4-44-4---66-6-66-6-44-4-44-4--|
    ..   ..   ..   ..     ..   ..   ..   ..     ..   ..   ..   ..


(continued)
e|--------------------------------------------|
B|--------------------------------------------|
G|--88-8-88-8-8/13-13-13-13-13-13-13-13-13----|
D|--88-8-88-8-x/-x--x--x--x--x--x--x--x--x----|
A|--66-6-66-6-6/11-11-11-11-11-11-11-11-11----|
E|--------------------------------------------|
    ..   ..

PRE-CHORUS 2
e|-------------------------------------------------------------------------|
B|-------------------------------------------------------------------------|
G|-------------------------------------------------------------------------|
D|--6-6-6-666-66-6----8-8-8-888-88-8----6-6-6-666-66-6----8--8--8888-------|
A|--6-6-6-666-66-6----8-8-8-888-88-8----6-6-6-666-66-6----8--8--8888-------|
E|--4-4-4-444-44-4----6-6-6-666-66-6----4-4-4-444-44-4----6--6--6666-------|
    . . . ... .. .    . . . ... .. .    . . . ... .. .


CHORUS 2
e|----------------------------------------------------|
B|----------------------------------------------------|
G|--8888--------------8888--8888----------------------|
D|--8888--6666--8888--8888--8888--6666--3333--8888----|  X2
A|--6666--6666--8888--6666--6666--6666--3333--8888----|
E|--------4444--6666--------------4444--1111--6666----|

SOLO 1
e|----------------3-----------------------|
B|--4p3h4p3h4p3h4-----6-4-3-4-6-4---------|  X3
G|----------------------------------------|
D|----------------------------------------|
A|----------------------------------------|
E|----------------------------------------|
                                           \
                                             X2
(continued)                                /
e|--6h8-6h8-6h8-6h8--10-8-6---------------|
B|----------------------------------------|
G|----------------------------------------|
D|----------------------------------------|
A|----------------------------------------|
E|----------------------------------------|


GUITAR BREAKDOWN
e|----------------------------------------------|
B|----------------------------------------------|
G|--8~----7/8~----10\8~-------------------------|
D|--8~----7/8~----10\8~-------------------------|
A|--6~----5/6~-----8\6~-------------------------|
E|----------------------------------------------|

SOLO 2
e|------------------------------------------|
B|------------------------------------------|
G|------------------------------------------|
D|--0-0--5/6--0-0--7/8--0-0--3/4--0-0-------|  X4
A|------------------------------------5/6---|
E|------------------------------------------|
    * *       * *       * *       * *

(continued)
e|----------------------------------------|
B|----------------------------------------|
G|--------------------------5/6-----8/9---|
D|--0-0--5/6--0-0--7/8--0-0-----0-0-------|  X3
A|----------------------------------------|
E|----------------------------------------|
    * *       * *       * *     * * 

(continued)
e|---------------------------------------|
B|---------------------------------------|
G|---------------------6-5-6-5-----------|
D|--0-0--5/6--0-0--7/8---------8---------|
A|---------------------------------------|
E|---------------------------------------|
    * *       * *


INTERLUDE
e|----------------------------------|
B|----------------------------------|
G|-8-88-----------------------------|
D|-8-88--8~-----6-66-8-6------------|  X8
A|-6-66--8~-----6-66-8-6------------|
E|-------6~-----4-44-6-4------------|
   . ..         . ..

(continued)
e|-----------------------------------|
B|-----------------------------------|
G|-8~--------------------------------|
D|-8~-----------(bass)---------------|
A|-6~----------11-10-8-6-------------|
E|-----------------------------------|

BEFORE "SILLY LILLY" PLAY THIS
e|--------------------------------------------|
B|--------------------------------------------|
G|-3-3-3~----3-3-3~---3-3-3~--5~--7~--8~------|
D|-3-3-3~----3-3-3~---3-3-3~--5~--7~--8~------|
A|-1-1-1~----1-1-1~---1-1-1~--3~--5~--6~------|
E|--------------------------------------------|


(continued)
e|---------------------------------------------------|
B|---------------------------------------------------|
G|------------------8888-8888------------------------|
D|-3--5--6---8888---8888-8888---6666---3333---8888---|
A|-3--5--6---8888---6666-6666---6666---3333---8888---|
E|-1--3--4---6666---------------4444---1111---6666---|

CHORUS 3
e|----------------------------------------------------|
B|----------------------------------------------------|
G|--8888--------------8888--8888----------------------|  X3
D|--8888--6666--8888--8888--8888--6666--3333--8888----|
A|--6666--6666--8888--6666--6666--6666--3333--8888----|
E|--------4444--6666--------------4444--1111--6666----|

FINISH ON THIS.
e|----------------|
B|----------------|
G|--8~------------|
D|--8~------------|
A|--6~------------|
E|----------------|


FINISH.......


Lyrics SILLY LILLY:


SILLY LILLY!
walking over me
like a desperation going to explain
but the nightmare
and illusions
she won't happen to believe that it's on me
waiting for her sign everytime she comes
it's getting so unreal to
BELIEVE!  THAT!  EVERYDAY!!


SILLY LILLY!
NEVER REALLY LIKES ME
SHE TOLD EVERYONE THAT
I WAS SUCH A GAY
BUT SILLY LILLY
THOUGHT IT WOULD BE EASY
HER PHILOSOPHY IS
BEING LEFT BEHIND BECAUSE OF ME


SILLY LILLY!
walking over me
like an ordinary girl
i would ignore to pass the time
but the nightmare
and illusions
she makes everything so right
it got me going everytime
waiting for her sign everytime she comes
it's getting so unreal to
BELIEVE!  THAT!  EVERYDAY!!


SILLY LILLY!
NEVER REALLY LIKES ME
SHE TOLD EVERYONE THAT
I WAS SUCH A GAY
BUT SILLY LILLY
THOUGHT IT WOULD BE EASY
HER PHILOSOPHY IS
BEING LEFT BEHIND BECAUSE OF ME


SILLY LILLY, like an impact strike on MTV
SILLY LILLY, like a new beginning to believe
SILLY LILLY, like an activated misery
SILLY LILLY, like a rush towards the posibilities

            
            
Suggest correction
Creating personal tab
Creating personal tab
You can edit any tab online and save it as your Personal.

You can edit, replace or remove any tab part or add personal notes – all changes will be seen only by you.

Personal tabs can be accessed anytime from any device, even offline.
Learn more »
Give kudos to tab author, rate the tab!
1 2 3 4 5
comments
print report bad tab
3 comments total.
0 reply
alesana4141 10 Mar 19, 2009 07:38 PM

ok

0 reply
tinaderm 10 Apr 11, 2009 06:54 AM

i have to log in just to give this comment
good job bro

0 reply
panic filth 268 Jun 14, 2009 12:19 AM

...

guest
You may want to rate the tab now too:
select rating
Wanna post a correction for this tab? Suggest correction