Oops, an error
Loading. Please wait.

Early Bird tab

by Buono!
424 views 1 this week
no commentswrite comment
1 2 3 4 5
3 more votes to show rating
add to favorites
×
Save as Personal and add changes to this tab that will be seen only by you. Learn more ›
×
You can save this tab as Personal to edit and correct it or add notes. All changes will be seen only by you. Learn more »
launch autoscroll
font size
0
reset
how to read this tab
guitar tuner
edit
Autoscroll
slow
fast
+/-
esc
set tempo
stop
Early Bird
by Buono!
tabbed by manOutOfTime
UPDATED

Intro:
D       G       Em      A      rpt

D       G           Em             A              D   G         Em
ohisama yori mo hayaku heya wo nukedashite isoganakya   (mite!)
        A
sora ni hoshi hitotsu
D       G           Em             A              D   G         Em
tonari no ie no john mo mada yume no naka mitai ne sotto (sootto)
        A
nukiashisashiashi

G                       Gm
kaze tsumetakute namida ga desou yo
F#m                   Bm
dakedo Kimochi wa ano sora to onnaji
G                    Gm
yukkuri akete hikari ga sashiteku
Em      G     A
Barairo no morning

 D     A     Bm  G     Em       A            D
ohayou me ga samete saisho ni aetara iin dakedo na
 D     A     Bm  G     Em       A            D
ohayou ichiban ni anata ni koe wo todoketakute
G           A               D
nee hora okite nee jikan da yo

Intro:
D       G       Em      A      rpt

D       G           Em             A              D   G         Em
kou miete mo neoki wa iihou nanda yo ne Watashi (so-o?)
        A
anata wa douka na
D       G           Em             A              D   G         Em
ichidan tobashi nagai kaidan kake nobotte furimukeba (i-ne!)
        A
tobikiri aozora

G                       Gm
asa ga kuru tabi Wakuwaku shichau yo
F#m                   Bm
kyou wa ittai nani ga hajimaru no ka
G                       Gm
sate doko iku? nani shite sugo sou?
Em      G     A
soko nuke no morning

 D     A     Bm  G     Em       A            D
ohayou me ga samete saisho ni anata no koto omou yo
 D     A     Bm  G     Em       A            D
ohayou ichinichi ga Shiawase de arimasu you ni
G          A               D
hora mou dekakeru jikan da yo

**Solo**
-----------10---10-12-14h15p14-----14h15p14----|-17---17-15-14h15-14----------|
-10v---8p7---------------------15-----------15-|------------------------------|
-----------------------------------------------|------------------------------|
-----------------------------------------------|------------------------------|
-----------------------------------------------|------------------------------|
-----------------------------------------------|------------------------------|

-14h15p14p12h14p12p10---------------------------------------------------------|
--------------------------------------1214--15-15\----------------7--/7h8-8---|
----------------------------------46---------------7p6h7-7\--/7-9-------------|
---------------------------4--57----------------------------------------------|
-----------------------5--7---------------------------------------------------|
------------------------------------------------------------------------------|

---------------------------|-------------------------|------------------------|
-7h8p7p5h7p5p3h5-3h5p3p2h3-|------------------7---10-|------------------------|
---------------------------|-/4--/6--/7--\4----------|------------------------|
---------------------------|-------------------------|------------------------|
---------------------------|-------------------------|------------------------|
---------------------------|-------------------------|------------------------|

 D     A     Bm  G     Em       A            D
ohayou me ga samete saisho ni aetara iin dakedo na
 D     A     Bm  G     Em       A            D
ohayou ichiban ni anata ni koe wo todoketakute
 D     A     Bm  G     Em       A            D
ohayou me ga samete saisho ni anata no koto omou yo
 D     A     Bm  G     Em       A            D
ohayou ichinichi ga Shiawase de arimasu you ni
G          A               D
hora mou dekakeru jikan da yo

**Intro**
D       G       Em      A      rptx2
D

            
            
Suggest correction
Creating personal tab
Creating personal tab
You can edit any tab online and save it as your Personal.

You can edit, replace or remove any tab part or add personal notes – all changes will be seen only by you.

Personal tabs can be accessed anytime from any device, even offline.
Learn more »
Give kudos to tab author, rate the tab!
1 2 3 4 5
comments
print report bad tab
guest
You may want to rate the tab now too:
select rating
Wanna post a correction for this tab? Suggest correction