Oops, an error
Loading. Please wait.

On My Own tab

version 2
version 2

Whole song

113 views 1 this week
no commentswrite comment
1 2 3 4 5
3 more votes to show rating
add to favorites
×
Save as Personal and add changes to this tab that will be seen only by you. Learn more ›
×
You can save this tab as Personal to edit and correct it or add notes. All changes will be seen only by you. Learn more »
launch autoscroll
font size
0
reset
how to read this tab
guitar tuner
edit
Autoscroll
slow
fast
+/-
esc
set tempo
stop
Author
Aight, I spent forever waiting for someone to tab this out for me, so I decided to do it 
I think I'm pretty close, but I'm not 100% on the pre-chorus.

Song: On Our Own
Band: Burden Brothers
Album: Mercy
Tuning: Standard
Tabbed by: VoltanEchoes
Questions, Comments, Suggestions: amckay2112@yahoo.com

Intro:
|----------------------11b12-----------------12---11------------| (x2)
|----------12b13-------------12b13---10-------------------------|
|-11b12---------------------------------------------------------|
|---------------------------------------------------------------|
|---------------------------------------------------------------|
|---------------------------------------------------------------|

Verse:
B        F#               A                G#m
Tell me about the day you traveled to the sun.
B             F#          A                     G#m
And how you lost your way before your trip was done.
B          F#                    A             G#m
Somewhere among the stars your head got turned around.
B             F#            A                G#m
And now the hardest part is learning to come down.

Pre-chorus:
"Just wave as you roll past my cloud.... We're all on our own now."
|-----------------------------------------------------------------------------------------------|
|-----------------------------------------------------------------------------------------------|
|-----------------------------------------------------------------------------------------------|
|-9--9--11---9-9--9-11----9-9--9-11-----9-9--9---11--9------------------------------------------|
|-7--7--7----7-7--7--7----7-7--7--7-----7-7--7---7---7--------------7--7--9--7-10--7--9--7--5~--|
|-------------------------------------------------------------------5--5--5--5--5--5--5--5--3~--|

Chorus: Intro riff played over the verse chords.

Verse 2: (Same chords)
Tell me your stories make me smile for you again.
About your glory days your journey into sin.
Tell me about the voices calling out to you.
And now the hardest choice is where do you pull to?

Bridge:
A           C#m               B
This is the moment you've waited for.
A        C#m     B
This is your time.
A      C#m                  B
Everything you've been wishing for.
A       C#m   B
This is your shine.
A         C#m          B
And I'm making my own wish now, yea...

Bass riff:(played during verses, nice to play here for sake of the song)
"I'm wishing on your star..."
|------------------------------------------|(x2 before the chords come back)
|------------------------------------------|
|------------------------------------------|
|--7--7h9--6--2---5--5h7--4--0-------------|

Variation on Intro Riff: (Replace the last note from the original)
e|--11h12p11--9--9h11---|

Enjoy!

            
            
Suggest correction
Creating personal tab
Creating personal tab
You can edit any tab online and save it as your Personal.

You can edit, replace or remove any tab part or add personal notes – all changes will be seen only by you.

Personal tabs can be accessed anytime from any device, even offline.
Learn more »
Give kudos to tab author, rate the tab!
1 2 3 4 5
comments
print report bad tab
guest
You may want to rate the tab now too:
select rating
Wanna post a correction for this tab? Suggest correction