Oops, an error
Loading. Please wait.

Heart Full Of Black tab

version 4
version 4

Whole song

Interactive

794 views 1 this week
1 commentread comment
1 2 3 4 5
x 9
add to favorites
×
Save as Personal and add changes to this tab that will be seen only by you. Learn more ›
×
You can save this tab as Personal to edit and correct it or add notes. All changes will be seen only by you. Learn more »
launch autoscroll
font size
0
reset
how to read this tab
guitar tuner
backing track
0:00
0:00
edit
Autoscroll
slow
fast
+/-
esc
set tempo
stop
Difficulty
I've been looking around..and i can't seem to find a good tab for heart full of 
i tabbed my own...here it goes

Intro
|------------|
|------------|
|------------|
|--7~~~------|
|--7~~~------|
|--5~~~------|


|-----------|
|-----------|
|--------7--|  X2
|--7--5--5--|
|--7--5--5--|
|--5--3-----|

|-----------------------|
|-----------------------|
|-------------------7---|
|--7-------7-----5--7---|  X2
|--7-----4---4---5--5---|
|--5-5-8------5--3------|


Verse
|------------------------------|
|------------------------------|
|--------7---------------------|
|--7~--5-7----7~--5---5---4/5/4|  X2
|--7~--5-5----7~--5---5---4/5/4|
|--5~--3------5~--3-0-3-0-2/3/2|


|---------|
|---------|
|---------| X20
|-2-------|
|-2-------|
|-0-------|


Chorus
|-----------------------|
|-----------------------|
|-------------------7---|
|--7-------7-----5--7---|  X4
|--7-----4---4---5--5---|
|--5-5-8------5--3------|


Verse
|------------------------------|
|------------------------------|
|--------7---------------------|
|--7~--5-7----7~--5---5---4/5/4|  X2
|--7~--5-5----7~--5---5---4/5/4|
|--5~--3------5~--3-0-3-0-2/3/2|


|---------|
|---------|
|---------| X20
|-2-------|
|-2-------|
|-0-------|

Chorus
|-----------------------|
|-----------------------|
|-------------------7---|
|--7-------7-----5--7---|  X4
|--7-----4---4---5--5---|
|--5-5-8------5--3------|


Bridge
|-----------------------------------|
|-5--5/8-8/10-10/14-14/12-12/10-10/5|
|-----------------------------------|
|-----------------------------------|
|-----------------------------------|
|-----------------------------------|

|-----------------------------------|
|--10-10-10-10-10-10b-10b-10b-------|  This is just whats played..they play
|-----------------------------------|  it for a longer time.
|-----------------------------------|
|-----------------------------------|
|-----------------------------------|
|-----------------------------------|

Verse
|------------------------------|
|------------------------------|
|--------7---------------------|
|--7~--5-7----7~--5---5---4/5/4|  X2
|--7~--5-5----7~--5---5---4/5/4|
|--5~--3------5~--3-0-3-0-2/3/2|


|---------|
|---------|
|---------| X20
|-2-------|
|-2-------|
|-0-------|


Chorus
|-----------------------|
|-----------------------|
|-------------------7---|
|--7-------7-----5--7---|  X4
|--7-----4---4---5--5---|
|--5-5-8------5--3------|


Solo
|-------------------------------------|
|-------------------------------------|
|--4b--4p2-2--------------------------|
|---------4--4p2-4p2------------------|
|--------------------4b-4b-4b-4b-3----|
|-------------------------------------|


|----------------------------------------|
|----------------------------------------|
|-14b-14--------------14b-14-------------|
|-------16p14---14-16-------16p14---14-16|
|-------------16------------------16-----|
|----------------------------------------|


|-----------------------|
|17b-17-14--------------|
|---------17-14---------|
|--------------16-14-16-|
|-----------------------|
|-----------------------|

|-------|
|-------|
|-------|
|-7-----| Just end on this
|-7-----|
|-5-----|


Notation Guide

h=hammer on
p=pull off
b=bend
~=ring out note
/ or \= slide

Well there you go...its not perfect..but it works...if u have any complaints, 
or randsoms..email me at sum41_rocks_ryley@hotmail.com

            
            
Suggest correction
Creating personal tab
Creating personal tab
You can edit any tab online and save it as your Personal.

You can edit, replace or remove any tab part or add personal notes – all changes will be seen only by you.

Personal tabs can be accessed anytime from any device, even offline.
Learn more »
comments
print report bad tab
1 comment total.
0 reply
belgianpunky 10 Mar 03, 2007 03:07 AM

nice try for this great song ;-)

guest
Wanna post a correction for this tab? Suggest correction